» » »

Family Force 5, Replace Me Tabs (ver.2)

Artists:  A B C D E F G H I J K L M N O P Q R S T U V W X Y Z # 

Replace Me Tabs (ver.2)

Family Force 5 Tabs
 Rating:
4.6/5 (9 votes)
Replace Me lessons Tabs too difficult? Try these video lessons and learn fast
                Family Force 5
Business Up Front Party In The Back
Gotee Records

Drop D tuning
.=palm mute
b=bend

Verse 1

Guitar 1
e------------------------------------|
b---------5-5-7-7-8-8-10-10-8-8-7-7--|
g-4-4-7-7----------------------------|
d------------------------------------|
a------------------------------------|
d------------------------------------|
pm..................................

Guitar 2
e-------    -----------|
b-------    -----------|
g-------    -----------|
d-55-44-    -99-55-44--| x4
a-55-44-    -99-55-44--|
d-55-44-    -99-55-44--|

Pre-Chorus
e----------------------------------------|
b----------------------------------------|
g----------------------------------------|
d----------------------------------------|
a----------------------------------------|
d-55555555s7s22222222s7-55555555s7s22222-|

Chorus

Guitar 1
e----------------|
b----------------|
g-44--77---------|
d-44--77--55--22-| x4
a-22--55--55--22-|
d---------55--22-|

Guitar 2
e--------------------------------------------------------------|
b--------------------------------------------------------------|
g-14-14-14-12-12-12-11--14-14-14-12-12-12-11----11-------11----|
d--------------------------------------------14----12-14----12-| x3
a--------------------------------------------------------------|
d--------------------------------------------------------------|


e--------------------------------------------------------------------|
b--------------------------------------------------------------------|
g-14-14-14-12-12-12-11--14/14/14----------16/16-14/14/14-------------|
d--------------------------------12/12/12----------------12/12/12-14-|
a--------------------------------------------------------------------|
d--------------------------------------------------------------------|


Post Chorus
e--------------------------------------------|
b--------------------------------------------|
g--------------------------------------------|
d--------------------------------------------|
a-2-----------------5-2----------------333-2-|
d---023-023-023-023-----023-023-023-0--------|

Verse 2
e-------    ----------------------|
b-------    ----------------------|
g-------    ----------------------|
d-55-44-    -99-55-44-99-55-44-99-|
a-55-44-    -99-55-44-99-55-44-99-|
d-55-44-    -99-55-44-99-55-44-99-|

Pre-Chorus
e----------------------------------------|
b----------------------------------------|
g----------------------------------------|
d----------------------------------------|
a----------------------------------------|
d-55555555s7s22222222s7-55555555s7s22222-|

Chorus
Guitar 1
e----------------|
b----------------|
g-44--77---------|
d-44--77--55--22-| x4
a-22--55--55--22-|
d---------55--22-|

Guitar 2
e--------------------------------------------------------------|
b--------------------------------------------------------------|
g-14-14-14-12-12-12-11--14-14-14-12-12-12-11----11-------11----|
d--------------------------------------------14----12-14----12-| x3
a--------------------------------------------------------------|
d--------------------------------------------------------------|


e--------------------------------------------------------------------|
b--------------------------------------------------------------------|
g-14-14-14-12-12-12-11--14/14/14----------16/16-14/14/14-------------|
d--------------------------------12/12/12----------------12/12/12-14-|
a--------------------------------------------------------------------|
d--------------------------------------------------------------------|

Bridge

Guitar 1
e------------------|
b------------------|
g------------------|
d-12-9-10-9-12-9---|
a-12-9-10-9-12-9---|
d-12-9-10-9-12-9---|

Guitar 2
e--------------------------------|
b--------------------------------|
g--------------------------------|
d--------------------------------|
a--------------------------------|
d-023-023-023-023----023-023-023-|
Pm..............................

Guitar 2
e--------------------------------------------|
b--------------------------------------------|
g--------------------------------------------|
d--------------------------------------------|
a-2-----------------5-2----------------333-2-|
d---023-023-023-023-----023-023-023-0--------|

e--------------------------------------------|
b--------------------------------------------|
g--------------------------------------------|
d--------------------------------------------|
a-----------------5-2---------2-----5-0-1----|
d-023-023-023-023-----023-023---4-5----------|

e--------------------------------------------|
b--------------------------------------------|
g--------------------------------------------|
d--------------------------------------------|
a-2-----------------5-2----------------333-2-|
d---023-023-023-023-----023-023-023-0--------|

e--------------------------------------------|
b--------------------------------------------|
g--------------------------------------------|
d--------------------------------------------|
a-----------------5-2---------2-----5-0-1----|
d-023-023-023-023-----023-023---4-5----------|

Guitar 1
e---------------------------------------------------|
b-----------------------------b19/17----------------|
g-12/11/9/7-------12/11-19/16--------19------b19----|
d-----------9/7/9-----------------------19-21----21-|
a---------------------------------------------------|
d---------------------------------------------------|
you can also alternate pick on these notes like 3 times each but i've
seen them live and they just hold the notes and they use some kinda effect

Guitars 1 and 2
e----------|
b----------|
g----------|
d-0--0-x-0-|
a-0--0-x-0-|
d-0--0-x-0-|

Chorus
Guitar 1
Guitar 1
e----------------|
b----------------|
g-44--77---------|
d-44--77--55--22-| x4
a-22--55--55--22-|
d---------55--22-|

Guitar 2
e--------------------------------------------------------------|
b--------------------------------------------------------------|
g-14-14-14-12-12-12-11--14-14-14-12-12-12-11----11-------11----|
d--------------------------------------------14----12-14----12-| x3
a--------------------------------------------------------------|
d--------------------------------------------------------------|


e--------------------------------------------------------------------|
b--------------------------------------------------------------------|
g-14-14-14-12-12-12-11--14/14/14----------16/16-14/14/14-------------|
d--------------------------------12/12/12----------------12/12/12-14-|
a--------------------------------------------------------------------|
d--------------------------------------------------------------------|

Outro
Guitar 2
e--------------------------------------------|
b--------------------------------------------|
g--------------------------------------------|
d--------------------------------------------|
a-2-----------------5-2----------------333-2-|
d---023-023-023-023-----023-023-023-0--------|

e----------------------------   ------------------|
b----------------------------   ------------------|
g----------------------------   ------------------|
d----------------------------   ------------------| x3
a-----------------5-2--------   -2-----5-0-1------|
d-023-023-023-023-----023-023   ---5-4------------|

MidgtGuitarist10
            
Submit corrections

comments powered by Disqus
↑ Back to top | Family Force 5 Tabs for Replace Me. Lyrics for acoustic guitar and electric guitar. Tablatures and chords are parodies/interpretations of the original songs. You may use it for private study, scholarship, research or language learning purposes only