>
 >
Love Addict

Love Addict Guitar Tabs

Family Force 5 - Love Addict chords, tabs, tablatures, lyrics

Guitar lessons | Add/correct | Request | Top 50 tabs Artists:  A B C D E F G H I J K L M N O P Q R S T U V W X Y Z 0-9

Love Addict Guitar Tabs – Family Force 5

CD, Sheet music, Poster

Do you like Love Addict? Share with your friends now
Bass TabsBass Tabs v2TabsTabs v2

Tuning: Drop D - DADGBE
Key:    PM = palm mute

This tab includes some of the synth parts written for the guitar so that you can play 
the whole song without long pauses


Pre-Chorus
E|---------------------------------------|
B|---------------------------3--3-3------|
G|-------------------2----2--------------|
D|----------0-0-0-0----------------------|
A|---------------------------------------|
D|--0----0-------------------------------|


Chrous
E|-------------------------------------------------------------|
B|-------------------------------------------------------------|
G|-------------------------------------------------------------|
D|--3-0-3-0--0--0-6-0-6-0--0--0-10-0-10-0--0--0-6-0-6-0--0--0--|
A|--3-0-3-0--0--0-6-0-6-0--0--0-10-0-10-0--0--0-6-0-6-0--0--0--|
D|--3-0-3-0--0--0-6-0-6-0--0--0-10-0-10-0--0--0-6-0-6-0--0--0--|


Verse
E|---------------------------------------|
B|---------------------------------------|
G|---------------------------------------|
D|--6-5-6-5--5-3-5-----------------------| x3
A|--6-5-6-5--5-3-5-----------------------|
D|--6-5-6-5--5-3-5-----------------------|

E|---------------------------------------|
B|---------------------------------------|
G|---------------------------------------|
D|--6-5-6-5--5-3-0-----------------------|
A|--6-5-6-5--5-3-0-----------------------|
D|--6-5-6-5--5-3-0-----------------------|

E|---------------------------------------|
B|---------------------------------------|
G|---------------------------------------|
D|--3-0-3-0--0--0-6-0-3-0--0--0----------|
A|--3-0-3-0--0--0-6-0-3-0--0--0----------|
D|--3-0-3-0--0--0-6-0-3-0--0--0----------|

E|---------------------------------------|
B|---------------------------------------|
G|---------------------------------------|
D|--6-5-6-5--5-3-5-----------------------| x3
A|--6-5-6-5--5-3-5-----------------------|
D|--6-5-6-5--5-3-5-----------------------|

E|---------------------------------------|
B|---------------------------------------|
G|---------------------------------------|
D|--6-5-6-5--5-3-0-----------------------|
A|--6-5-6-5--5-3-0-----------------------|
D|--6-5-6-5--5-3-0-----------------------|

E|---------------------------------------|
B|---------------------------------------|
G|---------------------------------------|
D|--3-0-3-0--0--0-6-0-3-0--0--0----------|
A|--3-0-3-0--0--0-6-0-3-0--0--0----------|
D|--3-0-3-0--0--0-6-0-3-0--0--0----------|


Pre-Chorus
E|---------------------------------------|
B|---------------------------3--3-3------|
G|-------------------2----2--------------|
D|----------0-0-0-0----------------------|
A|---------------------------------------|
D|--0----0-------------------------------|


Chorus x2
E|-------------------------------------------------------------|
B|-------------------------------------------------------------|
G|-------------------------------------------------------------|
D|--3-0-3-0--0--0-6-0-6-0--0--0-10-0-10-0--0--0-6-0-6-0--0--0--|
A|--3-0-3-0--0--0-6-0-6-0--0--0-10-0-10-0--0--0-6-0-6-0--0--0--|
D|--3-0-3-0--0--0-6-0-6-0--0--0-10-0-10-0--0--0-6-0-6-0--0--0--|


Verse Shortened
E|---------------------------------------|
B|---------------------------------------|
G|---------------------------------------|
D|--6-5-6-5--5-3-5-----------------------| x3
A|--6-5-6-5--5-3-5-----------------------|
D|--6-5-6-5--5-3-5-----------------------|

E|---------------------------------------|
B|---------------------------------------|
G|---------------------------------------|
D|--6-5-6-5--5-3-0-----------------------|
A|--6-5-6-5--5-3-0-----------------------|
D|--6-5-6-5--5-3-0-----------------------|

E|---------------------------------------|
B|---------------------------------------|
G|---------------------------------------|
D|--3-0-3-0--0--0-6-0-3-0--0--0----------|
A|--3-0-3-0--0--0-6-0-3-0--0--0----------|
D|--3-0-3-0--0--0-6-0-3-0--0--0----------|


Pre-Chorus
E|---------------------------------------|
B|---------------------------3--3-3------|
G|-------------------2----2--------------|
D|----------0-0-0-0----------------------|
A|---------------------------------------|
D|--0----0-------------------------------|


Chorus x2
E|-------------------------------------------------------------|
B|-------------------------------------------------------------|
G|-------------------------------------------------------------|
D|--3-0-3-0--0--0-6-0-6-0--0--0-10-0-10-0--0--0-6-0-6-0--0--0--|
A|--3-0-3-0--0--0-6-0-6-0--0--0-10-0-10-0--0--0-6-0-6-0--0--0--|
D|--3-0-3-0--0--0-6-0-6-0--0--0-10-0-10-0--0--0-6-0-6-0--0--0--|


Bridge part 1
E|-----------------------------------------|
B|----------5-5-----------5-5--------------|
G|--4--------------------------------------|
D|--2---2-2-----2-2---2-2-----2-2----------|
A|-----------------------------------------|
D|-----------------------------------------|
       |------------PM---------------------|

E|-----------------------------------------|
B|----------5-5-----------5--5-------------|
G|--4--------------------------------------|
D|--2---2-2-----2-2---2-2-------2----------|
A|-----------------------------------------|
D|-----------------------------------------|
       |-----------PM----------------------|

E|------------------------------------|
B|----------5-5-----------------------|
G|--4---------------------------------|
D|--2---2-2-----2-2-------------------| x3
A|------------------------------------|
D|------------------------------------|
       |-----PM-----------------------|

E|-----------------------------------|
B|----------5-5----------------------|
G|--4--------------------------------|
D|--2---2-2-----2--------------------|
A|-----------------------------------|
D|-----------------------------------|
       |----PM-----------------------|


Bridge Part 2
E|---------------------------------|
B|---------------------------------|
G|---------------------------------|
D|--0-3-0-2---2--2-----------------| x4
A|--0-3-0-2---2--2-----------------|
D|--0-3-0-2---2--2-----------------|

E|---------------------------------|
B|---------------------------------|
G|---------------------------------|
D|--0-3-0-----2--2-----------------| x2
A|--0-3-0-----2--2-----------------|
D|--0-3-0-----2--2-----------------|

E|---------|
B|---------|
G|---------|
D|--0-3-0--|
A|--0-3-0--|
D|--0-3-0--|


Pre-Chorus Altered
E|-------------------0----0--12--12-12--|
B|----------0-0-0-0---------------------|
G|--------------------------------------|
D|--2----2------------------------------|
A|--------------------------------------|
D|--------------------------------------|


Chorus Altered x4
E|-------------------------------------------------------------|
B|-------------------------------------------------------------|
G|-------------------------------------------------------------|
D|--5-2-5-2--2--2-8-2-8-2--2--2-12-2-12-2--2--2-8-2-8-2--2--2--|
A|--5-2-5-2--2--2-8-2-8-2--2--2-12-2-12-2--2--2-8-2-8-2--2--2--|
D|--5-2-5-2--2--2-8-2-8-2--2--2-12-2-12-2--2--2-8-2-8-2--2--2--|

E|-----|
B|-----|
G|--4--|
D|--2--|
A|-----|
D|-----|





Comments


Popular Family Force 5 tabs & chords
Replace Me Bass Tabs
Wake The Dead 2 Bass Tabs
Superhero 3 Chords
Color Of Water Tabs
Kountry Gentleman Tabs
Mamacita Tabs
Party Foul Intro Tabs
Radiator Tabs
Supersonic 2 Tabs
Superhero Ukulele


Song lyrics



↑ Back to top | Tablatures and chords are parodies/interpretations of the original songs. You may use it for private study, scholarship, research or language learning purposes only
© 2014 AZChords.com Contact us | Privacy policy | DMCA | Add/correct tabs | Request tabs | Top 50 tabs