» » »

Family Force 5, Earthquake Tabs (ver.1)

Artists:  A B C D E F G H I J K L M N O P Q R S T U V W X Y Z # 

Earthquake Tabs (ver.1)

Family Force 5 Tabs
Rating:
5/5 (14 votes)
Earthquake lessons Tabs too difficult? Try these video lessons and learn fast
                BAND: Family Force 5

                         *STANDARD DROP D TUNNING*

   INTRO:
E|---------------------------------------------------|
B|---------------------------------------------------|
G|---------------------------------------------------|
D|-0--1--2--0--1-2-0--1--2--0--1-2-0--1--2--0--1-2-0-|
A|-0--1--2--0--1-2-0--1--2--0--1-2-0--1--2--0--1-2-0-|
D|-0--1--2--0--1-2-0--1--2--0--1-2-0--1--2--0--1-2-0-|

   VERSE:
E|----------|         |---------------|
B|----------|         |---------------|
G|----------|         |---------------|
D|-0--1--2--| x4 then |-2-2-3--2-2-0--| x3
A|-0--1--2--|         |-2-2-3--2-2-0--|
D|-0--1--2--|         |-2-2-3--2-2-0--|

   CHORUS:
E|---------------------------------------------------|
B|---------------------------------------------------|
G|---------------------------------------------------|
D|-2--2--3--0--2-3-2--2--3--0--2-3-2--2--3--0--2-3-2-| x2
A|-2--2--3--0--2-3-2--2--3--0--2-3-2--2--3--0--2-3-2-|
D|-2--2--3--0--2-3-2--2--3--0--2-3-2--2--3--0--2-3-2-|

   RIFF:
E|---------------------------------|
B|---------------------------------|
G|---------------------------------|
D|-0--1--2--0--1-2-33-33-33-33-3-3-|
A|-0--1--2--0--1-2-33-33-33-33-3-3-|
D|-0--1--2--0--1-2-33-33-33-33-3-3-|
            
   AFTER RIFF GO TO THE VERSE THEN CHORUS THEN THE CHORUS
   AGAIN THEN THE OUTRO

   OUTRO:
E|-----------------------------------------------------------------|
B|-----------------------------------------------------------------|
G|-----------------------------------------------------------------|
D|-0--1--2--0--1-2-0--1--2--0--1-2-0--1--2--0--1-2-33-33-33-33-3-3-|
A|-0--1--2--0--1-2-0--1--2--0--1-2-0--1--2--0--1-2-33-33-33-33-3-3-|
D|-0--1--2--0--1-2-0--1--2--0--1-2-0--1--2--0--1-2-33-33-33-33-3-3-|
                                           
  THATS IT HAVE FUN ROCKIN' OUT WITH THE FAMILY!!!
            

comments powered by Disqus
↑ Back to top | Family Force 5 Tabs for Earthquake. Lyrics for acoustic guitar and electric guitar. Tablatures and chords are parodies/interpretations of the original songs. You may use it for private study, scholarship, research or language learning purposes only