» » »

Fall Out Boy, From Plastic To Skin Tabs (ver.1)

Artists:  A B C D E F G H I J K L M N O P Q R S T U V W X Y Z # 

From Plastic To Skin Tabs (ver.1)

Fall Out Boy Tabs
 Rating:
4/5 (4 votes)
From Plastic To Skin lessons Tabs too difficult? Try these video lessons and learn fast
                Tuning: normal

911 was a scam:

Riff 1:    A                                            B
E-------------------------------------------|-------------------------------------------------------------------|
B-------------------------------------------|-------------------------------------------------------------------|
G-------------------------------------------|-------------------------------------------------------------------|
D-77-7777-----------------22222222----------|--77------77-77-------------------------222222222------------------|
A-55-5555-55-5555-3333333-22222222-44444444-|--55-5555-55-55-55------55-55-333333333-222222222-444444444--------|
E---------33-3333-1111111-00000000-22222222-|----------------33-3333-33-33-111111111-000000000-222222222 x's 3--|
pm                                                ....          ....

Riff 2:
E-------------------------------------------------------------------------------------------------------------------|
B-------------------------------------------------------------------------------------------------------------------|
G-------------------------------------------------------------------------------------------------------------------|
D-77-777-9999-------------------77-777-9999-1111-1111-1111--77-777-9999-------------------77-777-9999---------------|
A-55-555-7777--55-555-4-3-3333--55-555-7777-999--999--9999--55-555-7777--55-555-4-3-3333--55-555-7777--55-----5555--|
E--------------33-333-2-1-1111-------------------------------------------33-333-2-1-1111---------------33-333-3333--|
pm                                                                                                        ...

Riff 1: B x's 2

Riff 3:
E--------------------------------------------------------------------------------------------|
B--------------------------------------------------------------------------------------------|
G--------------------------------------------------------------------------------------------|
D--------------------------------------------------------------------------------------------|
A-10-1010-88-55-333333-555555-10-1010-1212-1414---14141414-101010-888888-12121212--------14--|
E-88-888--66-33-111111-333333-88-888--1010-1212---12121212-888888-666666-10101010 x's 3--12--|

Riff 4:
E--------------------------------------------------------------------------------------------------------------|
B--------------------------------------------------------------------------------------------------------------|
G---------------------------------------12-12-11-14-------12-12-11-7-------------------------------------------|
D----------------------------------9-11--------------9-11---------------------15-14-12---------15-14-12--------|
A-5--5/12-12/10--5---5/12-12/10----------------------------------------12-14------------12-14---------- x's 4--|
E-3--------------3---------------------------------------------------------------------------------------------|

Riff 5:
E-----------------------------------------------------------------------------------------------------------------------|
B-----------------------------------------------------------------------------------------------------------------------|
G------9------9-----99------9-12-----9-12-99-1212------10-12------10-12-1010-1212------11-12-----11-12-1111-1212--------|
D----7------7----77-----------------------------------------------------------------------------------------------------|
A-----------------------------------------------------------------------------------------------------------------------|
E-00-----00--------------00------00-----------------00--------00-------------------00---------00---------------- x's 2--|
pm..     ..              ..      ..                 ..        ..                   ..         ..

E--------------------------------------|
B--------------------------------------|
G--------------------------------------|
D--------------------------------------|
A-10-12--------55----------------------|
E-8--10--88-66-33    Then Riff 5 x's 2-|
pm       .. ..

Riff 2

Riff 6:
E--------------------------------------------------------------------------------------------------------------|
B--------------------------------------------------------------------------------------------------------------|
G-------------------------------------------------------------------------------------2----2-------------------|
D-----------------------1515---1414----1313---1212----1515---1414---1313----1212------2----2-----4----4--------|
A----77-88-77-55-77-------------------------------------------------------------------0----0-----2----2--------|
E-55-----------------00-----00------00------00-----00-----00-----00-----00---------00---00----00---00-- x's 3--|
pm                   ..     ..      ..      ..     ..     ..     ..     ..         ..   ..    ..   ..

Riff 7:
E-----------------------------------------------------------------------------------------------------------------------------|
B-----------------------------------------------------------------------------------------------------------------------------|
G-----------------------------------------------------------------------------------------------------------------------------|
D-------------------------1515----1414------1313------1212-----1515----1414------1313------1212-------------------------------|
A----77-88-77-55-77-33-------------------------------------------------------------------------------------77-88-77-55-77-33--|
E-55-------------------00------00-------00--------00--------00------00-------00--------00------ x's 2---55--------------------|
pm                     ..      ..       ..        ..        ..      ..       ..        ..
            
Submit corrections

comments powered by Disqus
↑ Back to top | Fall Out Boy Tabs for From Plastic To Skin. Lyrics for acoustic guitar and electric guitar. Tablatures and chords are parodies/interpretations of the original songs. You may use it for private study, scholarship, research or language learning purposes only