>
 >
Broken Heart

Broken Heart Guitar Tabs

Falling Up - Broken Heart chords, tabs, tablatures, lyrics

Guitar lessons | Add/correct | Request | Top 50 tabs Artists:  A B C D E F G H I J K L M N O P Q R S T U V W X Y Z 0-9

Broken Heart Guitar Tabs – Falling Up

CD, Sheet music, Poster

Do you like Broken Heart? Share with your friends now
Bass TabsChordsChords v2TabsTabs v2Ukulele
-------------------------------------------------------------------------------
-------------------------------------------------------------------------------

IM: nanny4669

Tuning: Drop D


Intro 1:
   (GUITAR 1 palm mute)
    D /UDU D /DU   D /UDU D /DU  etc...
e|--xxxxxx-xxxxx---xxxxxx-xxxxx---xxxxxx-xxxxx---xxxxxx-xxxxx----------------|
B|--xxxxxx-xxxxx---xxxxxx-xxxxx---xxxxxx-xxxxx---xxxxxx-xxxxx----------------|
G|--xxxxxx-xxxxx---xxxxxx-xxxxx---xxxxxx-xxxxx---xxxxxx-xxxxx----------------|
D|--0h4661-1/466---0h4661-1/466---0h4661-1/466---0h4661-1/466----------------|
A|--0h4661-1/466---0h4661-1/466---0h4661-1/466---0h4661-1/466----------------|
E|--0h4661-1/466---0h4661-1/466---0h4661-1/466---0h4661-1/466----------------|


Verse 1:
    (GUITAR 1)
       Every moment...
    D /UDU D /DU   D /UDU D /DU etc...
e|--xxxxxx-xxxxx---xxxxxx-xxxxx---xxxxxx-xxxxx---xxxxxx-xxxxx---xxxxxx-xxxxx-|
B|--xxxxxx-xxxxx---xxxxxx-xxxxx---xxxxxx-xxxxx---xxxxxx-xxxxx---xxxxxx-xxxxx-|
G|--xxxxxx-xxxxx---xxxxxx-xxxxx---xxxxxx-xxxxx---xxxxxx-xxxxx---xxxxxx-xxxxx-|
D|--0h4661-1/466---0h4661-1/466---0h4661-1/466---0h4661-1/466---0h4661-1/466-|
A|--0h4661-1/466---0h4661-1/466---0h4661-1/466---0h4661-1/466---0h4661-1/466-|
E|--0h4661-1/466---0h4661-1/466---0h4661-1/466---0h4661-1/466---0h4661-1/466-|
    
    (GUITAR 2)
    DUD DU    DU   DUD DU    DU etc...
e|--xxx-xx----xx---xxx-xx----xx---xxx-xx----xx---xxx-xx----xx---xxx-xx----xx-|
B|--xxx-xx----xx---xxx-xx----xx---xxx-xx----xx---xxx-xx----xx---xxx-xx----xx-|
G|--888-88----88---888-88----88---888-88----88---888-88----88---888-88----88-|
D|--888-88----88---888-88----88---888-88----88---888-88----88---888-88----88-|
A|--666-66----66---666-66----66---666-66----66---666-66----66---666-66----66-|
E|--xxx-xx----xx---xxx-xx----xx---xxx-xx----xx---xxx-xx----xx---xxx-xx----xx-|
    

    (GUITAR 1)  		
		             Bring me back to Life...
e|--xxxxxx-xxxxx---xxxxxx-xxxxx---xxxxxx-xxxxx---x---------------------------|
B|--xxxxxx-xxxxx---xxxxxx-xxxxx---xxxxxx-xxxxx---x---------------------------|
G|--xxxxxx-xxxxx---xxxxxx-xxxxx---xxxxxx-xxxxx---x---------------------------|
D|--0h4661-1/466---0h4661-1/466---0h4661-1/466---4---------------------------|
A|--0h4661-1/466---0h4661-1/466---0h4661-1/466---4---------------------------|
E|--0h4661-1/466---0h4661-1/466---0h4661-1/466---4---------------------------|
    
    (GUITAR 2)
e|--xxx-xx----xx---xxx-xx----xx---xxx-xx----xx---x---------------------------|
B|--xxx-xx----xx---xxx-xx----xx---xxx-xx----xx---x---------------------------|
G|--888-88----88---888-88----88---888-88----88---x---------------------------|
D|--888-88----88---888-88----88---888-88----88---4---------------------------|
A|--666-66----66---666-66----66---666-66----66---4---------------------------|
E|--xxx-xx----xx---xxx-xx----xx---xxx-xx----xx---4---------------------------|


Chorus:
    (GUITAR 1&2)	
       Father,...                                            ...your voice of love.
    DDDDDDDU DDDDDDDU etc...
e|--xxxxxxxx-xxxxxxxx-xxxxxxxxxxxxxxxxxxxxxxxx-xxxxxxxx-xxxxxxxxxxxxxxxx-----|
B|--xxxxxxxx-xxxxxxxx-xxxxxxxxxxxxxxxxxxxxxxxx-xxxxxxxx-xxxxxxxxxxxxxxxx-----|
G|--xxxxxxxx-xxxxxxxx-xxxxxxxxxxxxxxxxxxxxxxxx-xxxxxxxx-xxxxxxxxxxxxxxxx-----|
D|--222222x2-444444x4-6666666644444444222222x2-444444x4-66666666444444x4-----|
A|--222222x2-444444x4-6666666644444444222222x2-444444x4-66666666444444x4-----|
E|--222222x2-444444x4-6666666644444444222222x2-444444x4-66666666444444x4-----|
      
       
Intro 2:
   (GUITAR 1 palm mute)
    D /UDU D /DU   D /UDU D /DU  etc...
e|--xxxxxx-xxxxx---xxxxxx-xxxxx----------------------------------------------|
B|--xxxxxx-xxxxx---xxxxxx-xxxxx----------------------------------------------|
G|--xxxxxx-xxxxx---xxxxxx-xxxxx----------------------------------------------|
D|--0h4661-1/466---0h4661-1/466----------------------------------------------|
A|--0h4661-1/466---0h4661-1/466----------------------------------------------|
E|--0h4661-1/466---0h4661-1/466----------------------------------------------|


Verse 2:
    (GUITAR 1)
       There's a healing coming from the wind... 
    D /UDU D /DU   D /UDU D /DU etc...
e|--xxxxxx-xxxxx---xxxxxx-xxxxx---xxxxxx-xxxxx---xxxxxx-xxxxx---xxxxxx-xxxxx-|
B|--xxxxxx-xxxxx---xxxxxx-xxxxx---xxxxxx-xxxxx---xxxxxx-xxxxx---xxxxxx-xxxxx-|
G|--xxxxxx-xxxxx---xxxxxx-xxxxx---xxxxxx-xxxxx---xxxxxx-xxxxx---xxxxxx-xxxxx-|
D|--0h4661-1/466---0h4661-1/466---0h4661-1/466---0h4661-1/466---0h4661-1/466-|
A|--0h4661-1/466---0h4661-1/466---0h4661-1/466---0h4661-1/466---0h4661-1/466-|
E|--0h4661-1/466---0h4661-1/466---0h4661-1/466---0h4661-1/466---0h4661-1/466-|
    
    (GUITAR 2)
    DUD DU    DU   DUD DU    DU etc...
e|--xxx-xx----xx---xxx-xx----xx---xxx-xx----xx---xxx-xx----xx---xxx-xx----xx-|
B|--xxx-xx----xx---xxx-xx----xx---xxx-xx----xx---xxx-xx----xx---xxx-xx----xx-|
G|--888-88----88---888-88----88---888-88----88---888-88----88---888-88----88-|
D|--888-88----88---888-88----88---888-88----88---888-88----88---888-88----88-|
A|--666-66----66---666-66----66---666-66----66---666-66----66---666-66----66-|
E|--xxx-xx----xx---xxx-xx----xx---xxx-xx----xx---xxx-xx----xx---xxx-xx----xx-|
    

    (GUITAR 1)  	
	                                   
		             Bring me back to Life...
e|--xxxxxx-xxxxx---xxxxxx-xxxxx---xxxxxx-xxxxx---x---------------------------|
B|--xxxxxx-xxxxx---xxxxxx-xxxxx---xxxxxx-xxxxx---x---------------------------|
G|--xxxxxx-xxxxx---xxxxxx-xxxxx---xxxxxx-xxxxx---x---------------------------|
D|--0h4661-1/466---0h4661-1/466---0h4661-1/466---4---------------------------|
A|--0h4661-1/466---0h4661-1/466---0h4661-1/466---4---------------------------|
E|--0h4661-1/466---0h4661-1/466---0h4661-1/466---4---------------------------|
    
    (GUITAR 2)
e|--xxx-xx----xx---xxx-xx----xx---xxx-xx----xx---x---------------------------|
B|--xxx-xx----xx---xxx-xx----xx---xxx-xx----xx---x---------------------------|
G|--888-88----88---888-88----88---888-88----88---x---------------------------|
D|--888-88----88---888-88----88---888-88----88---4---------------------------|
A|--666-66----66---666-66----66---666-66----66---4---------------------------|
E|--xxx-xx----xx---xxx-xx----xx---xxx-xx----xx---4---------------------------|


Chorus:
    (GUITAR 1&2)	
       Father,...                                   ...your voice of love.
    DDDDDDDU DDDDDDDU etc...                                            DUDU
e|--xxxxxxxx-xxxxxxxx-xxxxxxxxxxxxxxxxxxxxxxxx-xxxxxxxx-xxxxxxxxxxxxxxxxxx---|
B|--xxxxxxxx-xxxxxxxx-xxxxxxxxxxxxxxxxxxxxxxxx-xxxxxxxx-xxxxxxxxxxxxxxxxxx---|
G|--xxxxxxxx-xxxxxxxx-xxxxxxxxxxxxxxxxxxxxxxxx-xxxxxxxx-xxxxxxxxxxxxxxxxxx---|
D|--222222x2-444444x4-6666666644444444222222x2-444444x4-66666666444444xxxx---|
A|--222222x2-444444x4-6666666644444444222222x2-444444x4-66666666444444xxxx---|
E|--222222x2-444444x4-6666666644444444222222x2-444444x4-66666666444444xxxx---|
     
      
Bridge:
   (GUITAR 1)
  DD       DD         DUDUDUDUDUDUDUDU etc...      
e|xx-------xx---------xxxxxxxxxxxxxxxx-xx-------xx---------xxxxxxxxxxxxxxxx--|
B|xx-------xx---------xxxxxxxxxxxxxxxx-xx-------xx---------xxxxxxxxxxxxxxxx--|
G|xx-------xx---------xxxxxxxxxxxxxxxx-xx-------xx---------xxxxxxxxxxxxxxxx--|
D|22-------44---------66x44466x4446666-22-------44---------66x44466x4446666--|
A|22-------44---------66x44466x4446666-22-------44---------66x44466x4446666--|
E|22-------44---------66x44466x4446666-22-------44---------66x44466x4446666--|
       	                            	                  
   (GUITAR 2)				                   
    D U D U  D U D U  DD UDUDUDUDUDUDU etc...                  
e|--x x x x--x x x x--xx-xxxxxxxxxxxxx---x x x x--x x x x--xx-xxxxxxxxxxxxx-|
B|--x x x x--x x x x--xx-xxxxxxxxxxxxx---x x x x--x x x x--xx-xxxxxxxxxxxxx-|
G|--11111111-11111111-4x-33388x4443388---11111111-11111111-4x-33388x4443388-|
D|--x x x x--x x x x--xx-xxxxxxxxxxxxx---x x x x--x x x x--xx-xxxxxxxxxxxxx-|
A|--9 9 9 9--9 9 9 9--2x-11166x2221166---9 9 9 9--9 9 9 9--2x-11166x2221166-|
E|--x x x x--x x x x--xx-xxxxxxxxxxxxx---x x x x--x x x x--xx-xxxxxxxxxxxxx-|
       
    (GUITAR 1&2)
    You can hold...				...Something etched this way.
e|--xxxxxxxxxxxxxxxxxxxxxxxxxxxxxxxxxxxxxxxxxxxxxxxxxxxxxxxxxxxxxxxxxxxxxxxx-|
B|--xxxxxxxxxxxxxxxxxxxxxxxxxxxxxxxxxxxxxxxxxxxxxxxxxxxxxxxxxxxxxxxxxxxxxxxx-|
G|--xxxxxxxxxxxxxxxxxxxxxxxxxxxxxxxxxxxxxxxxxxxxxxxxxxxxxxxxxxxxxxxxxxxxxxxx-|
D|--222222226666666622222222666666662222222266666666222222226xxxxx6xxxxx6666-|
A|--222222226666666622222222666666662222222266666666222222226xxxxx6xxxxx6666-|
E|--222222226666666622222222666666662222222266666666222222226xxxxx6xxxxx6666-|
                                 
    (GUITAR 2)      (GUITAR 1&2)
                         
      Father...                                                 Voice of love.
e|--xxxxxxxxxxxxxxxx-xxxxxxxxxxxxxxxxxxxxxxxx-xxxxxxxx-xxxxxxxxxxxxxxxx--xxxx|
B|--xxxxxxxxxxxxxxxx-xxxxxxxxxxxxxxxxxxxxxxxx-xxxxxxxx-xxxxxxxxxxxxxxxx--xxxx|
G|--xxxxxxxxxxxxxxxx-xxxxxxxxxxxxxxxxxxxxxxxx-xxxxxxxx-xxxxxxxxxxxxxxxx--xxxx|
D|--22222222444444x4-6666666644444444222222x2-444444x4-66666666444444x4--2222|
A|--22222222444444x4-6666666644444444222222x2-444444x4-66666666444444x4--2222|
E|--22222222444444x4-6666666644444444222222x2-444444x4-66666666444444x4--2222|

 			   (*palm mute this part*)
                              ****************...heart it so in need.
e|xxxxxxxxxxxxxxxxxxxxxxxxxxxxxxxxxxxxxxxxxxxxxxxxxxxxxxxxxxxx---------------|
B|xxxxxxxxxxxxxxxxxxxxxxxxxxxxxxxxxxxxxxxxxxxxxxxxxxxxxxxxxxxx---------------|
G|xxxxxxxxxxxxxxxxxxxxxxxxxxxxxxxxxxxxxxxxxxxxxxxxxxxxxxxxxxxx---------------|
D|222244444444666666664444444422222222444444446666666644444444---------------|
A|222244444444666666664444444422222222444444446666666644444444---------------|
E|222244444444666666664444444422222222444444446666666644444444---------------|


Outro:
    (GUITAR 1)
   D /UDU D /DU   D /UDU D /DU DUDU DD       DD         DDUDD 
e|-xxxxxx-xxxxx---xxxxxx-xxxxx-xxxx-xx-------xx---------xxxxx---------------|
B|-xxxxxx-xxxxx---xxxxxx-xxxxx-xxxx-xx-------xx---------xxxxx---------------|
G|-xxxxxx-xxxxx---xxxxxx-xxxxx-xxxx-xx-------xx---------xxxxx---------------|
D|-0h4661-1/466---0h4661-1/466-xxxx-22-------44---------6x462---------------|
A|-0h4661-1/466---0h4661-1/466-xxxx-22-------44---------6x462---------------|
E|-0h4661-1/466---0h4661-1/466-xxxx-22-------44---------6x462---------------|
                                                                  
    (GUITAR 2)                                                      
   DUD DU    DU   DUD DU    DU DUDU   D U D U  D U D U  DDUDD            
e|-xxx-xx----xx---xxx-xx----xx-xxxx---x x x x--x x x x--xxxxx---------------|
B|-xxx-xx----xx---xxx-xx----xx-xxxx---x x x x--x x x x--xxxxx---------------|
G|-888-88----88---888-88----88-xxxx---11111111-11111111-4x38x---------------|
D|-888-88----88---888-88----88-xxxx---x x x x--x x x x--xxxx2---------------|
A|-666-66----66---666-66----66-xxxx---9 9 9 9--9 9 9 9--2x162---------------|
E|-xxx-xx----xx---xxx-xx----xx-xxxx---x x x x--x x x x--xxxx2---------------|


| /  slide up
| h  hammer-on
| p  pull-off
| x  Mute note

Sorry I don't have the lyrics on this song. I couldn't find them, but if anyone knows
requests, or anything else that you can think of. Enjoy! 
	-Aaron
===============================================================================





Comments


Popular Falling Up tabs & chords
A Guide To Marine Life Chords
Bittersweet Chords
Broken Heart Chords
Bruise Chords
Contact Chords
Goddess Of The Dayspring Am I Chords
Golden Arrows Chords
Rooftops Chords
Bitter Sweet Tabs
Diamnds Ukulele


Song lyrics



↑ Back to top | Tablatures and chords are parodies/interpretations of the original songs. You may use it for private study, scholarship, research or language learning purposes only
© 2014 AZChords.com Contact us | Privacy policy | DMCA | Add/correct tabs | Request tabs | Top 50 tabs