» » »

Falling Up, Broken Heart Bass tabs (ver.1)

Artists:  A B C D E F G H I J K L M N O P Q R S T U V W X Y Z # 

Broken Heart Bass tabs (ver.1)

Falling Up Tabs
 Rating:
4/5 (5 votes)
Broken Heart lessons Tabs too difficult? Try these video lessons and learn fast
                -------------------------------------------------------------------------------
-------------------------------------------------------------------------------

Tuning: Drop D

Intro                   Verse                 End On
G|-----------------|   |-----------------|   |------|
D|-----------------|   |-----------------|   |------|
A|-----------------|   |-----------------|   |------|
D|-0h46-66--1/6-66-|x4 |-0h46-66--1/6-66-|x8 |--4~--|

Chorus
G|-----------------------------------------------------------------|
D|-----------------------------------------------------------------|
A|-----------------------------------------------------------------|
D|-2-2-2-2-2-2-x-2-4-4-4-4-4-4-x-4-6-6-6-6-6-6-6-6-4-4-4-4-4-4-4-4-|x2

Verse
G|-----------------------------------------------------------------------|
D|-----------------------------------------------------------------------|
A|-----------------------------------------------------------------------|
D|-0h46-66--1/6-66---0h46-66--1/6-66---0h46-66--1/6-66---0h46-66--1/6-66-|x3
 
  End On
G|------|
D|------|
A|------|
D|--4~--|

Chorus
G|-----------------------------------------------------------------|
D|-----------------------------------------------------------------|
A|-----------------------------------------------------------------|
D|-2-2-2-2-2-2-x-2-4-4-4-4-4-4-x-4-6-6-6-6-6-6-6-6-4-4-4-4-4-4-4-4-|x2

Bridge
G|------------------------------------|
D|------------------------------------|
A|------------------------------------|
D|-2-2/14---4-4/16---6-6-4-6--6-6-4-6-|x2

G|-----------------------------------|   |-------------------------|
D|-----------------------------------|   |-------------------------|
A|-----------------------------------|   |-------------------------|
D|-2-2-2-2-2-2-2-2-6-6-6-6-6-6-6-6-6-|x3 |-2-2-2-2-2-2-2-2-6--6--6-|

Chorus
G|| |R| |---------------------------------|
D|| |E| |---------------------------------|
A|| |S| |---------------------------------|
D|| |T| |-6-6-6-6-6-6-6-6-4-4-4-4-4-4-4-4-|

G|-----------------------------------------------------------------|
D|-----------------------------------------------------------------|
A|-----------------------------------------------------------------|
D|-2-2-2-2-2-2-x-2-4-4-4-4-4-4-x-4-6-6-6-6-6-6-6-6-4-4-4-4-4-4-4-4-|

Outro
G|-----------------------------------------------------------------|
D|-----------------------------------------------------------------|
A|-----------------------------------------------------------------|
D|-2-2-2-2-2-2-2-2-4-4-4-4-4-4-4-4-6-6-6-6-6-6-6-6-4-4-4-4-4-4-4-4-|x2

G|-----------------------------------|------------------------------|
D|-----------------------------------|------------------------------|
A|-----------------------------------|------------------------------|
D|-0h46-66--1/6-66---0h46-66--1/6-66-|-2-2/14---4-4/16---6-6-4-6-4~-|


| /  slide up
| \  slide down
| h  hammer-on
| p  pull-off
| ~  let note ring
| +  harmonic
| x  Mute note
===============================================================================
            
Submit corrections

comments powered by Disqus
↑ Back to top | Falling Up Bass for Broken Heart. Lyrics for acoustic guitar and electric guitar. Tablatures and chords are parodies/interpretations of the original songs. You may use it for private study, scholarship, research or language learning purposes only