» » »

Falling In Reverse, The Drug In Me Is You Tabs (ver.2)

Artists:  A B C D E F G H I J K L M N O P Q R S T U V W X Y Z # 

The Drug In Me Is You Tabs (ver.2)

Falling In Reverse Tabs
 Rating:
4.6/5 (10 votes)
The Drug In Me Is You lessons Tabs too difficult? Try these video lessons and learn fast
                The Drug In Me Is You
Falling In Reverse

Drop C Tuning

I dont know the solo to the song yet so whenever I learn that it will up posted.



Intro

|------------------------------------|
|------------------------------------|
|------------------------------------|
|-0----0-3-3----5-0-0---3--2-2-2-2-2-|
|-0----0-1-1----3-0-0---1--0-0-0-0-0-|
|-0----0----------0-0----------------|
                                                             PM...............

Harmony

|------------------------------------------------------------|
|------------------------------------------------------------|
|-----12-14--14----12-14--14----12-14--14-12--14-12-14-12----|
|--15-----------14-----------12---------------------------14-|
|------------------------------------------------------------|
|------------------------------------------------------------|

|---------------------------------------------------|
|---------------------------------------------------|
|-----12-14--14----12-14--14----12-14--14-14--12-12-|
|--15-----------14-----------12---------------------|
|--------------------------------------12-12--10-10-|
|---------------------------------------------------|

Verse

|--------------------------------------------------------|
|--------------------------------------------------------|
|--------------------------------------------------------|
|--------------------------------------------------------|
|-----------------------------1-------------0------------|
|-0--3-2-3-2-3--0--3-2-3-2-3-----3-2-3-2-3-----3-5-3-2-3-|


|---------------------------------------------|
|---------------------------------------------|
|-------------------------------------------2-|
|-------------------------------------------2-|
|-----------------------------1-------------0-|
|-0--3-2-3-2-3--0--3-2-3-2-3-----3-2-3-2-3----|

|---------------------------------------------------------------|
|---------------------------------------------------------------|
|---------------------------------------------------------------|
|---------------------------------------------------------------|
|-------------------------------1--------------0----------------|
|-0--33-2-3-2-3--0--33-2-3-2-3-----33-2-3-2-3--------33-5-3-2-3-|

|--------------------------------------------|
|--------------------------------------------|
|--------------------------------------------|
|-------------------------------3-3-3-3--2-2-|
|-------------------------------1-1-1-1--0-0-|
|-0--33-2-3-2-3--0--33-2-3-2-3---------------|

Chorus (listen to song to get strumming pattern, very simple)

|-------------------------------|
|-------------------------------|
|-------------------------------|
|--3--0--2--3---3--0--2--3---5--|
|--3--0--0--1---3--0--0--1---3--|
|--3--0---------3--0------------|

Harmony

|------------------------------------------------------------|
|------------------------------------------------------------|
|-----12-14--14----12-14--14----12-14--14-12--14-12-14-12-10-|
|--15-----------14-----------12------------------------------|
|------------------------------------------------------------|
|------------------------------------------------------------|

Verse

Bass comes in first


|---------------------------------------------|
|---------------------------------------------|
|---------------------------------------------|
|---------------------------------------------|
|-----------------------------1-------------0-|
|-0--3-2-3-2-3--0--3-2-3-2-3-----3-2-3-2-3----|

|---------------------------------------------------------------|
|---------------------------------------------------------------|
|---------------------------------------------------------------|
|---------------------------------------------------------------|
|-------------------------------1--------------0----------------|
|-0--33-2-3-2-3--0--33-2-3-2-3-----33-2-3-2-3--------33-5-3-2-3-|

|---------------------------------------------------------------|
|---------------------------------------------------------------|
|---------------------------------------------------------------|
|---------------------------------------------------------------|
|-------------------------------1--------------0----------------|
|-0--33-2-3-2-3--0--33-2-3-2-3-----33-2-3-2-3--------33-5-3-2-3-|

Chorus

|-------------------------------|
|-------------------------------|
|-------------------------------|
|--3--0--2--3---3--0--2--3---5--|
|--3--0--0--1---3--0--0--1---3--|
|--3--0---------3--0------------|

Solo (not yet figured out, will be up whenever I do)

Backing to Solo (listen for strumming patterns)

|------------------------------------|
|------------------------------------|
|--------------------------7---------|
|--0--2--3--3--2-2---0--2-----77--55-|
|--0--2--1--3--0-0---0--2--5--77--55-|
|--0--2-----3--------0--2-----77--55-|

After Solo

|-------------------------------------------------|
|-------------------------------------------------|
|-------------------------------------------------|
|-00--77-5555-77--88-7777-88--77-5555-55--22-3333-|
|-00----------77----------88----------55----------|
|-00----------77----------88----------55----------|

|---------------------------------------------|
|---------------------------------------------|
|---------------------------------------------|
|-00--77-5555-77--88-7777-88--77-5555-55--77--|
|-00----------77----------88----------55--77--|
|-00----------77----------88----------55--77--|

Chorus

|-------------------------------|
|-------------------------------|
|-------------------------------|
|--3--0--2--3---3--0--2--3---5--|
|--3--0--0--1---3--0--0--1---3--|
|--3--0---------3--0------------|

Harmony

|------------------------------------------------------------|
|------------------------------------------------------------|
|-----12-14--14----12-14--14----12-14--14-12--14-12-14-12----|
|--15-----------14-----------12---------------------------14-|
|------------------------------------------------------------|
|------------------------------------------------------------|

|------------------------------------------------------------|
|------------------------------------------------------------|
|-----12-14--14----12-14--14----12-14--14-12--14-12-14-12-10-|
|--15-----------14-----------12------------------------------|
|------------------------------------------------------------|
|------------------------------------------------------------|

Ending (let ring)

|----|
|----|
|----|
|--0~|
|--0~|
|--0~|


Hope you enjoy
            
Submit corrections

comments powered by Disqus
↑ Back to top | Falling In Reverse Tabs for The Drug In Me Is You. Lyrics for acoustic guitar and electric guitar. Tablatures and chords are parodies/interpretations of the original songs. You may use it for private study, scholarship, research or language learning purposes only