» » »

Falling In Reverse, The Drug In Me Is You Bass tabs (ver.1)

Artists:  A B C D E F G H I J K L M N O P Q R S T U V W X Y Z # 

The Drug In Me Is You Bass tabs (ver.1)

Falling In Reverse Tabs
Rating:
4/5 (8 votes)
The Drug In Me Is You lessons Tabs too difficult? Try these video lessons and learn fast
                -------------------------------------------------------------------------------
-------------------------------------------------------------------------------






Tuning: Drop C.





Verse [00:00]

F|-----------------------------------------------|
C|-----------------------------------------------|
G|-------5----1-1----------------1----0-0-0-0-0--|
C|--0----------------10\----0--------------------|

F|---------------------------------------|
C|-----------------------3(x4)--2-3-2----|
G|---------0(x8)--1(x8)---------------4--|
C|--0(x8)--------------------------------|

F|-----------------------------------|
C|-----------------------------------|
G|---------0(x8)--1(x8)--0--0--------|
C|--0(x8)----------------------5--5--|



[00:28]

F|---------------------------------------------------------------|
C|-----3-2-3-2-0-0----3-2-3-2-0------3-2-3-2-0-------------------|
G|------------------------------1--------------0----000----------|
C|--0---------------------------------------------------5-3-2-0--|

F|---------------------------------------------|
C|--3-2-3-2-0-0----3-2-3-2-0------3-2-3-2-0----|
G|---------------------------1--------------0--|
C|---------------------------------------------|

F|------------------------------------------------------------------|
C|-----33-2-3-2-0-0----33-2-3-2-0------33-2-3-2-0-------------------|
G|--------------------------------1---------------0----000----------|
C|--0------------------------------------------------------5-3-2-0--|

F|----------------------------------------|
C|--33-2-3-2-0-0----33-2-3-2-0------------|
G|-----------------------------1-1-1-1-0--|
C|----------------------------------------|



Chorus [00:55]

F|-----------------------------------------------|
C|----------------------------------------00-22--|
G|----------5(x16)--0(x16)--1(x8)--11-33---------|   [x2]
C|--3(x16)---------------------------------------|

F|----------------------------------|
C|----------------------------------|
G|---------0(x8)--1(x8)-------------|
C|--0(x8)----------------3-3-3-3-2--|



Verse [01:28]

F|---------------------------------------------------------------|
C|-----3-2-3-2-0------3-2-3-2-0------3-2-3-2-0-------------------|
G|------------------------------1--------------0----000----------|
C|--0------------0--------------------------------------5-3-2-0--|

F|---------------------------------------------|
C|--3-2-3-2-0-0----3-2-3-2-0------3-2-3-2-0----|
G|---------------------------1--------------0--|
C|---------------------------------------------|

F|------------------------------------------------------------------------------------------|
C|-----33-22-33-22-00-000000----33-22-33-22-00------33-22-33-22-00--------------------------|
G|---------------------------------------------1-------------------0-00-00----0-------------|
C|--0---------------------------------------------------------------------------55-33-22-0--|

F|---------------------------------------------------------------------|
C|--33-22-33-22-00-0-00----33-22-33-22-00------33-22-33-22-00----------|
G|----------------------------------------1-------------------0-00-00--|
C|---------------------------------------------------------------------|



Chorus [01:54]

F|-----------------------------------------------|
C|----------------------------------------00-22--|
G|----------5(x16)--0(x16)--1(x8)--11-33---------|   [x2]
C|--3(x16)---------------------------------------|



Solo [02:20]

F|--------------------------------------------------------------------|
C|--------------------------------------------------------------------|
G|----------------1(x8)--3(x4)--0-0------------------1(x8)--0-0-------|
C|--0(x8)--2(x8)-----------------------0(x8)--2(x8)--------------5-5--|

F|----------------------------------------------------------------------|
C|----------------------------------------------------------------------|
G|---------0-0----1-1-------------------------0-0----1-1----------------|
C|--0-0------------------5-5----10\----0-0------------------5-5----7-7--|



Chorus [02:47]

F|-----------------------------------------------|
C|----------------------------------------00-22--|
G|----------5(x16)--0(x16)--1(x8)--11-33---------|   [x2]
C|--3(x16)---------------------------------------|

F|---------------------------------------|
C|-----------------------3(x4)--2-3-2----|
G|---------0(x8)--1(x8)---------------4--|
C|--0(x8)--------------------------------|

F|------------------------------------------|
C|-----------------------3(x4)--2-3-2-------|
G|---------0(x8)--1(x8)---------------4-----|
C|--0(x8)--------------------------------0--|





| /  slide up
| \  slide down
| h  hammer-on
| p  pull-off
| ~  vibrato
| +  harmonic
| x  Mute note
===============================================================================
            

comments powered by Disqus
↑ Back to top | Falling In Reverse Bass for The Drug In Me Is You. Lyrics for acoustic guitar and electric guitar. Tablatures and chords are parodies/interpretations of the original songs. You may use it for private study, scholarship, research or language learning purposes only