» » »

Faktion, Maybe Tabs (ver.2)

Artists:  A B C D E F G H I J K L M N O P Q R S T U V W X Y Z # 

Maybe Tabs (ver.2)

Faktion Tabs
 Rating:
4.2/5 (5 votes)
Maybe lessons Tabs too difficult? Try these video lessons and learn fast
                (Intro)
-----------------------------------------------------------------------------
                             Maybe - Faktion
-----------------------------------------------------------------------------

Tuning: Half Step Down, Drop D (Db Ab Db Gb Bb eb)

Intro
eb|--------------------------------------------------------------------------|
Bb|--------------------------------------------------------------------------|
Gb|5----5---5-5-55555----10/12-12-12-10-10-10-xx-10\9-9\-5----5---5-5-55555--|
Db|5----5---5-5-55555------------------------------------5----5---5-5-55555--|
Ab|3-xx-3-x-3-3-33333-----8/10-10-10--8--8--8-xx--8\7-7\-3-xx-3-x-3-3-33333--|
Db|--xx---x-----------0-0----------------------------------xx---x------------|

eb|--------------------------------------------------------------------------|
Bb|--------------------------------------------------------------------------|
Gb|101010101010101099999-5----5---5-5-55555-10-12-12-12-10-10-10----10\9-9\--|
Db|----------------------5----5---5-5-55555----------------------------------|
Ab|-8-8-8-8-8-8-8-877777-3-xx-3-x-3-3-33333--8/10-10-10--8--8--8-xx--8\7-7\--|
Db|------------------------xx---x--------------------------------xx----------|

eb|--------------------------------------------------------------------------|
Bb|--------------------------------------------------------------------------|
Gb|5----5---5-5-55555--------------------5----5---5-5-55555------------------|
Db|5----5---5-5-55555-101010777999555777-5----5---5-5-55555------------------|
Ab|3-xx-3-x-3-3-33333--------------------3-xx-3-x-3-3-33333------------------|
Db|--xx---x------------8-8-8555777333555-------------------------------------|

eb|--------------------------------------------------------------------------|
Bb|--------------------------------------------------------------------------|
Gb|10101012121212/14\9999/10-5----5---5-5-55555-1010109997~~-----------------|
Db|--------------------------5----5---5-5-55555------------------------------|
Ab|-8-8-810101010/12\7777/-8-3-xx-3-x-3-3-33333--8-8-87775~~-----------------|
Db|----------------------------xx---x----------------------------------------|

First Solo
eb|--------------------------------------------------------------------------|
Bb|--------------------------------------------------------------------------|
Gb|5/7 5/7~~-5-5\---8/10 8/10~~-9-9b10-7-5\---12-12-12h14-14-14-14~~---------|
Db|--------------------------------------------------------------------------|
Ab|--------------------------------------------------------------------------|
Db|--------------------------------------------------------------------------|

eb|12--12-13-13---------12-13-15/17-13-15-12-13----12------------------------|
Bb|-------------15~~--15------------------------15-----15b17-15b17~~p13------|
Gb|--14----------------------------------------------------------------14----|
Db|--------------------------------------------------------------------------|
Ab|--------------------------------------------------------------------------|
Db|--------------------------------------------------------------------------|

eb|--------------------------------------------------------------------------|
Bb|13-15--------------13-15--------------------------------------------------|
Gb|------12/14~-12/14-------14\12-10-10~-10-12-14-10-10h12-----------<12>~~--|
Db|--------------------------------------------------------14~~~14~~---------|
Ab|--------------------------------------------------------------------------|
Db|--------------------------------------------------------------------------|

This song ROCKS and I wish I was good enough to tab the whole thing but for now this 
get you started. I only tabbed part of the first solo...if you listen to the song you'll 
where I stopped at the harmonic. Anyway, keep on rockin' guys.
            
Submit corrections

comments powered by Disqus
↑ Back to top | Faktion Tabs for Maybe. Lyrics for acoustic guitar and electric guitar. Tablatures and chords are parodies/interpretations of the original songs. You may use it for private study, scholarship, research or language learning purposes only