>
 >
Maybe Intro

Maybe Intro Guitar Tabs

Faktion - Maybe Intro chords, tabs, tablatures, lyrics

Guitar lessons | Add/correct | Request | Top 50 tabs Artists:  A B C D E F G H I J K L M N O P Q R S T U V W X Y Z 0-9

Maybe Intro Guitar Tabs – Faktion

CD, Sheet music, Poster

Do you like Maybe Intro? Share with your friends now
TabsTabs v2
----------------------------------------------------------------------------
                             Maybe - Faktion
----------------------------------------------------------------------------

Tuning: Half Step Down, Drop D (Db Ab Db Gb Bb eb)

eb|-------------------------------------------------------------------------|
Bb|-------------------------------------------------------------------------|
Gb|5----5---5-5-55555---10/12-1212-10-10-10-10\9-9--5----5---5-5-55555------|
Db|5----5---5-5-55555-------------------------------5----5---5-5-55555------|
Ab|3-xx-3-x-3-3-33333----8/10-1010--8--8--8--8\7-7\-3-xx-3-x-3-3-33333------|
Db|--xx---x-----------00------------------------------xx---x----------------|

eb|-------------------------------------------------------------------------|
Bb|-------------------------------------------------------------------------|
Gb|101010101010101099999--5----5---5-5-55555----10/12-1212-10-10-10-10\9-9--|
Db|-----------------------5----5---5-5-55555--------------------------------|
Ab|-8-8-8-8-8-8-8-877777--3-xx-3-x-3-3-33333-----8/10-1010--8--8--8--8\7-7\-|
Db|-------------------------xx---x-----------000----------------------------|

eb|-------------------------------------------------------------------------|
Bb|-------------------------------------------------------------------------|
Gb|5----5---5-5-55555-1010107779995555/7--5----5---5-5-55555----------------|
Db|5----5---5-5-55555---------------------5----5---5-5-55555----------------|
Ab|3-xx-3-x-3-3-33333--8-8-85557773333/5--3-xx-3-x-3-3-33333----------------|
Db|--xx---x---------------------------------xx---x--------------------------|

eb|-------------------------------------------------------------------------|
Bb|-------------------------------------------------------------------------|
Gb|10101012121212/14\9999/10--5----5---5-5-55555-1010109997~----------------|
Db|---------------------------5----5---5-5-55555----------------------------|
Ab|-8-8-810101010/12\7777/-8--3-xx-3-x-3-3-33333--8-8-87775~----------------|
Db|-----------------------------xx---x--------------------------------------|

First Solo
eb|-------------------------------------------------------------------------|
Bb|-------------------------------------------------------------------------|
Gb|5/7 5/7~--5-5\-----/10-/10~--9-9b10-7-5\-----12-12-12h14-14-14-14~-------|
Db|-------------------------------------------------------------------------|
Ab|-------------------------------------------------------------------------|
Db|-------------------------------------------------------------------------|

eb|12---12-13-13---------12-13-15/17-13-15-12-13---12--10b12-10b12----------|
Bb|--------------15~---15------------------------15-------------------------|
Gb|---14--------------------------------------------------------------------|
Db|-------------------------------------------------------------------------|
Ab|-------------------------------------------------------------------------|
Db|-------------------------------------------------------------------------|

eb|10p8---8-10-------------8-10---------------------------------------------|
Bb|-----10-----8/10~--8/10------10\8-6-6\--/6-8-10-6-8\--5b6~~-*14~---------|
Gb|-------------------------------------------------------------------------|
Db|-------------------------------------------------------------------------|
Ab|-------------------------------------------------------------------------|
Db|-------------------------------------------------------------------------|

eb|----------------------------------------------------------------15--b*17-|
Bb|-----------------------------------------------------------15h17--17-----|
Gb|/9-10-10-10/12-12~-/10-12-12-12/14-14~-/12-14-14-14/17-17~---------------|
Db|-------------------------------------------------------------------------|
Ab|-------------------------------------------------------------------------|
Db|-------------------------------------------------------------------------|

Alright the first tab I wrote for this song had an error in it on some of the octaves so 
submitting this one as a correction...Keep on rockin' guys!





Comments


Popular Faktion tabs & chords
Control Intro Tabs
Distance Tabs
Distance 1 Tabs
Letting You Go Tabs
Maybe Intro 1 Tabs
Slip Away Intro Tabs
Take It All Away Tabs


Song lyrics



↑ Back to top | Tablatures and chords are parodies/interpretations of the original songs. You may use it for private study, scholarship, research or language learning purposes only
© 2014 AZChords.com Contact us | Privacy policy | DMCA | Add/correct tabs | Request tabs | Top 50 tabs