» » »

Faker, This Heart Attack Tabs (ver.1)

Artists:  A B C D E F G H I J K L M N O P Q R S T U V W X Y Z # 

This Heart Attack Tabs (ver.1)

Faker Tabs
 Rating:
3.4/5 (10 votes)
This Heart Attack lessons Tabs too difficult? Try these video lessons and learn fast
1
                 this heart attack FAKER

    intro/verse
e-7--7--7---------------------|
B-----------------------------|
G---------6-6--9-9------------|
D---------6-6--9-9--9-9--7-7--|x3 4th time with
A---------4-4--7-7--9-9--7-7--|   2/3 xtra strums
E-------------------7-7--5-5--|
          verse
e------------------------|
B------------------------|
G----6-6--9-9------------|
D----6-6--9-9--9-9--7-7--|x3 4th time with
A----4-4--7-7--9-9--7-7--|   2/3 xtra strums
E--------------7-7--5-5--|
   pre chourus
e--------------------------------------|
B--------------------------------------|
G--------------------------------------|
D-7-7-7-7-7-7-7-7-7--9-9-9-9-9-9-9-9-9-|x2
A-7-7-7-7-7-7-7-7-7--9-9-9-9-9-9-9-9-9-|
E-5-5-5-5-5-5-5-5-5--7-7-7-7-7-7-7-7-7-|
   chorus
e-------------------------------|
B-------------------------------|
G-------------66666666----------|
D-77777777----66666666-99999999-|x2
A-77777777-x2-44444444-99999999-|
E-55555555-------------77777777-|

          verse
e------------------------|
B------------------------|
G----6-6--9-9------------|
D----6-6--9-9--9-9--7-7--|x3 4th time with
A----4-4--7-7--9-9--7-7--|   2/3 xtra strums
E--------------7-7--5-5--|

 verse with stop after the E strums
e------------------------|
B------------------------|
G----6-6--9-9------------|
D----6-6--9-9--9-9--7-7--|x3 4th time with
A----4-4--7-7--9-9--7-7--|   2/3 xtra strums
E--------------7-7--5-5--|

  pre bridge
e------------------|
B------------------|
G---6---9----------|
D--6---9----9---7--|x2
A-4---7----9---7---|
E---------7---5----|

e---------------------|
B---------------------|
G---8----11-----------|
D--8---11------11---9-|
A-6---9------11----9--|
E-----------9-----7---|

e-------------------------------|
B-------------------------------|
G---8----11---------------------|
D--8---11------11----11----11~--|
A-6---9------11----11----11~----|
E-----------9-----9-----9~------|
     bridge
e--------------------------------------------------|
B--------------------------------------------------|
G-6-9-------6-----6-9------6-----------------------|
D-6-9-7---7-6-9---6-9-7---7-6-9--------------------|
A-4-7-7---7-4-9---4-7-7---7-4-9--------------------|
E-----5---5---7-------5---5---7---7/16-------------|

   chorus
e-------------------------------|
B-------------------------------|
G-------------66666666----------|
D-77777777----66666666-99999999-|x4
A-77777777-x2-44444444-99999999-|
E-55555555-------------77777777-|

    verse until end
e------------------------|
B------------------------|
G----6-6--9-9------------|
D----6-6--9-9--9-9--7-7--|
A----4-4--7-7--9-9--7-7--|
E--------------7-7--5-5--|
            
Submit corrections

comments powered by Disqus
↑ Back to top | Faker Tabs for This Heart Attack. Lyrics for acoustic guitar and electric guitar. 1 Tablatures and chords are parodies/interpretations of the original songs. You may use it for private study, scholarship, research or language learning purposes only