» » »

This Heart Attack Bass tabs (ver.1)

Artists:  A B C D E F G H I J K L M N O P Q R S T U V W X Y Z # 

This Heart Attack Bass tabs (ver.1)

Faker
Rating:
3/5 (2 votes)

Hard to play? Try these video lessons and learn fast.
                
This song is bloody awesome. Listen to the timing of the changes in this song.
There are a couple of pauses throughout the song as well.

Tuning: Standard ( E A D G )

Verse:
G|--6-----9-------------------------------|
D|--------------9-----7-------------------|
A|-4--4--7--7-----------------------------| 
E|-------------7--7--5--5-----------------|

End Verse:
G|--6-----9--------------------------|
D|--------------9--------------------|
A|-4--4--7---------------------------| 
E|-------------7---------------------|

Pre Chorus:
G|----------------------------------------|
D|----------------------------------------|
A|-44-22-00-00-00--44-00-22-22-22---------|
E|----------------------------------------|


Chorus:
G|----------------------------------------|
D|----------------------------------------|
A|-00000000000000004444444422222222-------|
E|----------------------------------------|


Bridge part 1:
G|----------------------------------------|
D|----------------------------------------|
A|-4-4-4-4-7-7-7-7-2-2-2-2-0-0-0-0--------|
E|----------------------------------------|

Bridge part 2:
G|----------------------------------------|
D|-6-6-6-6-9-9-9-9-4-4-4-4-2-2-2-2--------|
A|----------------------------------------|
E|----------------------------------------|

Bridge part 3:
G|----------------------------------------|
D|----------------------------------------|
A|--4-2-0~--4-0-2~--4-7-0~--4-0-2~--------|
E|----------------------------------------|


Song sequence:

Verse x 7
End Verse x 1
Pre Chorus x 2
Chorus x 2

Verse x 2

Verse x 3
End Verse x 1
Pre Chorus x 2
Chorus x 2
Bridge part 1 x 2
Bridge part 2 x 2
Brideg part 3

Chorus x 4
Verse x 2
            
Hard to play? Try these video lessons and learn fast. | Correct




comments powered by Disqus
↑ Back to top | Tablatures and chords are parodies/interpretations of the original songs. You may use it for private study, scholarship, research or language learning purposes only