» » »

Digging The Grave Bass tabs (ver.1)

Artists:  A B C D E F G H I J K L M N O P Q R S T U V W X Y Z # 

Digging The Grave Bass tabs (ver.1)

Faith No More
Rating:
0/5 (0 votes)

Tabs too difficult? Try these video lessons and learn fast.
                (2)

 Verse

 |----------------|----------------|----------------|----------------|
 |----------------|----------------|----------------|----------------|
 |3-3-3-3-3-3-3-3-|----------------|5-5-5-5-5-5-5-5-|----------------|
 |----------------|4-4-4-4-4-4-4-4-|----------------|6-6-6-6-6-6-6-6-|

 |----------------|----------------|----------------|----------------|
 |----------------|----------------|----------------|----------------|
 |3-3-3-3-3-3-3-3-|----------------|5-5-5-5-5-5-5-5-|----------------|
 |----------------|4-4-4-4-4-4-4-4-|----------------|6-6-6-6-6-6-6-6-|

 |----------------|----------------|----------------|----------------|
 |----------------|----------------|----------------|----------------|
 |3-3-3-3-3-3-3-3-|----------------|5-5-5-5-5-5-5-5-|----------------|
 |----------------|4-4-4-4-4-4-4-4-|----------------|6-6-6-6-6-6-6-6-|

 |----------------|----------------|----------------|----------------|
 |----------------|----------------|----------------|----------------|
 |3-3-3-3-3-3-3-3-|----------------|5-5-5-5-7-7-8-8-|----------------|
 |----------------|4-4-4-4-4-4-4-4-|----------------|6-6-6-6-6-6-6-6-|

Chorus

 |----------------|----------------|----------------|----------------|
 |----------------|----------------|----------------|----------------|
 |----------------|3-3-3-3-3-3-3-3-|----------------|3-3-3-3-3-3-3-3-|
 |0-0-0-0-0-0-0-0-|----------------|0-0-0-0-0-0-0-0-|----------------|

 |----------------|----------------|----------------|----------------|
 |----------------|----------------|----------------|----------------|
 |----------5-5---|----------------|----------5-5---|----------------|
 |7-7-5-7---------|7-7-5-7---8-8---|7-7-5-7---------|7-7-5-7---8-8---|

 |----------------|----------------|----------------|----------------|
 |----------------|----------------|----------------|----------------|
 |----------------|3-3-3-3-3-3-3-3-|----------------|3-3-3-3-3-3-3-3-|
 |0-0-0-0-0-0-0-0-|----------------|0-0-0-0-0-0-0-0-|----------------|

 |----------------|----------------|----------------|----------------|
 |----------------|----------------|----------------|----------------|
 |----------5-5---|----------------|----------5-5---|----------------|
 |7-7-5-7---------|7-7-5-7---8-8---|7-7-5-7---------|7-7-5-7---8-8---|

Bridge (For the time follow the drum)

 |----------------|----------------|----------------|----------------|
 |----------------|----------------|----------------|----------------|
 |----------------|----------------|----------------|----------------|
 |\8-8-8---8-8-8--|8-8-8---8-8-8---|8-8-8-8--8-8-8--|8-8-8-8---8-8-8-|

 |----------------|----------------|----------------|----------------|
 |----------------|----------------|----------------|----------------|
 |7-7-7---7-7-7-7/|9-9-9---9-9-9-9/|101010--10101010|\5-5-5---5-5-5-5|
 |----------------|----------------|----------------|----------------|

 |----------------|----------------|----------------|----------------|
 |----------------|----------------|----------------|----------------|
 |----------------|----------------|----------------|----------------|
 |\8-8-8---8-8-8--|8-8-8---8-8-8---|8-8-8-8--8-8-8--|8-8-8-8---8-8-8-|

 |----------------|----------------|----------------|----------------|
 |----------------|----------------|----------------|----------------|
 |7-7-7---7-7-7-7/|9-9-9---9-9-9-9/|101010--10101010|\5-5-5---5-5-5-5|
 |----------------|----------------|----------------|----------------|

 |----------------|----------------|----------------|----------------|
 |--2-0-----------|--2-0-----------|--2-0-----------|--2-0-----------|
 |------3-2-0-----|------3-2-0-----|------3-2-0-----|------3-2-0-----|
 |0-----------0---|0------------0--|0-----------0---|0-----------0---|
 
 |----------------|----------------|----------------|----------------|
 |--2-0-----------|--2-0-----------|--2-0-----------|--2-0-----------|
 |------3-2-0-----|------3-2-0-----|------3-2-0-----|------3-2-0-----|
 |0-----------0---|0------------0--|0-----------0---|0-----------0---|

Chorus

 |----------------|----------------|----------------|----------------|
 |----------------|----------------|----------------|----------------|
 |----------------|3-3-3-3-3-3-3-3-|----------------|3-3-3-3-3-3-3-3-|
 |0-0-0-0-0-0-0-0-|----------------|0-0-0-0-0-0-0-0-|----------------|

 |----------------|----------------|----------------|----------------|
 |----------------|----------------|----------------|----------------|
 |----------5-5---|----------------|----------5-5---|----------------|
 |7-7-5-7---------|7-7-5-7---8-8---|7-7-5-7---------|7-7-5-7---8-8---|

 |----------------|----------------|----------------|----------------|
 |----------------|----------------|----------------|----------------|
 |----------------|3-3-3-3-3-3-3-3-|----------------|3-3-3-3-3-3-3-3-|
 |0-0-0-0-0-0-0-0-|----------------|0-0-0-0-0-0-0-0-|----------------|

 |----------------|----------------|----------------|----------------|
 |----------------|----------------|----------------|----------------|
 |----------5-5---|----------------|----------5-5---|----------------|
 |7-7-5-7---------|7-7-5-7---8-8---|7-7-5-7---------|7-7-5-7---8-8---|

 Verse

 |----------------|----------------|----------------|----------------|
 |----------------|----------------|----------------|----------------|
 |3-3-3-3-3-3-3-3-|----------------|5-5-5-5-5-5-5-5-|----------------|
 |----------------|4-4-4-4-4-4-4-4-|----------------|6-6-6-6-6-6-6-6-|

 |----------------|----------------|----------------|----------------|
 |----------------|----------------|----------------|----------------|
 |3-3-3-3-3-3-3-3-|----------------|5-5-5-5-7-7-8-8-|----------------|
 |----------------|4-4-4-4-4-4-4-4-|----------------|6-6-6-6-6-6-6-6-|

 |----------------|----------------|----------------|----------------|
 |----------------|----------------|----------------|----------------|
 |3-3-3-3-3-3-3-3-|----------------|5-5-5-5-5-5-5-5-|----------------|
 |----------------|4-4-4-4-4-4-4-4-|----------------|6-6-6-6-6-6-6-6-|

 |----------------|----------------|----------------|----------------|
 |----------------|----------------|----------------|----------------|
 |3-3-3-3-3-3-3-3-|----------------|5-5-5-5-7-7-8-8-|----------------|
 |----------------|4-4-4-4-4-4-4-4-|----------------|6-6-6-6-6-6-6-6-|

The end
            
Tabs too difficult? Try these video lessons and learn fast.




comments powered by Disqus
↑ Back to top | Tablatures and chords are parodies/interpretations of the original songs. You may use it for private study, scholarship, research or language learning purposes only