» » »

Faith No More, Digging The Grave Tabs (ver.3)

Artists:  A B C D E F G H I J K L M N O P Q R S T U V W X Y Z # 

Digging The Grave Tabs (ver.3)

Faith No More Tabs
 Rating:
4/5 (4 votes)
Digging The Grave lessons Tabs too difficult? Try these video lessons and learn fast
                Group: Faith No More
Song : Digging The Grave

 ___________
|Author note| 
|
|This tab is for the 2nd guitar. I arranged it to make it 
|easier as it possible.
|
|Enjoy!


pause x8

riff1
E |------------------|------------------|------------------|
B |------------------|------------------|------------------|
G |-----5-------5----|------------------|-----7-------7----|
D |---5---5---5---5--|-----6-------6----|---7---7---7---7--|
A |-3-------3--------|---6---6---6---6--|-5-------5--------|
E |------------------|-4-------4--------|------------------|

E |----------------|
B |----------------|
G |----------------| x2
D |-----7-------7--|
A |---7---7---7----|
E |-6-------6------|

riff2
E |-----------------|--------------|
B |-----------------|--------------|
G |-9-9-9--9-9-9----|-9-9-9----9---|
D |-9-9-9--9-9-9----|-101010--10---| x2
A |-7-7-7--7-7-7----|-101010--10---|
E |-7-7-7--7-7-7----|-8-8-8---8----|

pause x4
riff2
pause x12
riff1 x2
riff2
pause x4
riff2
pause x8

riff3
E |-0-0-0-0-0-0-0-0-|
B |-0-0-0-0-0-0-0-0-|
G |-9-9-9-9-9-9-9-9-|
D |-9-9-9-9-9-9-9-9-| x4
A |-7-7-7-7-7-7-7-7-|
E |-----------------|

riff4
E |-------------------|
B |--------8----------|
G |-----9--------9----|
D |---9-------------9-| x4
A |-7-----------------|
E |-------------------|


riff3 x3
pause x12
riff2
pause x4
riff2
pause x12
riff1 x2
            
Submit corrections

comments powered by Disqus
↑ Back to top | Faith No More Tabs for Digging The Grave. Lyrics for acoustic guitar and electric guitar. Tablatures and chords are parodies/interpretations of the original songs. You may use it for private study, scholarship, research or language learning purposes only