» » »

Faith Music Manila, Labis Na Galak Tabs (ver.1)

Artists:  A B C D E F G H I J K L M N O P Q R S T U V W X Y Z # 

Labis Na Galak Tabs (ver.1)

Faith Music Manila Tabs
Rating:
0/5 (0 votes)
Labis Na Galak lessons Tabs too difficult? Try these video lessons and learn fast
                (Intro)
Faith Music - Labis Na Galak

Legend:
/-Slide In
\-Slide Out
~-Vibrato
H-Hammer-on
P-Pull-off
T-Thrill



Piano Part Before Intro
Bb7-
e----------------------------------------|
B----------------------------------------|
G---------------------10-----------------|
D----8--8P6H8-----6/8----8\6----8P6--8~--|
A-----------------------------------8----|
E----------------------------------------|

Intro Part
Bb-
e---------------------|----------------------|
B---------------------|----------------------|
G--------7H8----------|------7H8-------------|
D------8----8---------|---/8----8--------8~--|
A------------8---6-5~-|----------8---6/8-----|
E--6~-----------------|----------------------|

e---------------------|----------------------|
B---------------------|----------------------|
G--------7H8----------|------7H8-------------|
D-----/8----8---------|---/8----8--------8~--|
A------------8---6-5~-|----------8---6\5-----|
E---------------------|----------------------|


Outro Part (Same Above: Except last part)
Bb-                                   (Thrill Part: 5fast notes)
e--------------------------------|------------------------------18~--|
B---------------/9--/16-18---15~-|--15H16P15--15T16T15--15H16/18-----|
G--------7H8/10------------------|-----------------------------------|
D-----/8-------------------------|-----------------------------------|
A--------------------------------|-----------------------------------|
E--------------------------------|-----------------------------------|

How to thrill? (Outro Thrilling Part) Ganyan mabilis nga lang!
e--------------------|
B--15H16P15H16P15----|
G--------------------|
D--------------------|
A--------------------|
E--------------------|



~Godspeed~
Nakakatamad pala gumawa ng tab, intro palang pagod nako.. Hahahaha..
My 1st Tab pasensya na.. Praise Him always!
            

comments powered by Disqus
↑ Back to top | Faith Music Manila Tabs for Labis Na Galak. Lyrics for acoustic guitar and electric guitar. Tablatures and chords are parodies/interpretations of the original songs. You may use it for private study, scholarship, research or language learning purposes only