>
 >
Hari Ng Kaluwalhatian

Hari Ng Kaluwalhatian Guitar Tabs

Faith Music Manila - Hari Ng Kaluwalhatian chords, tabs, tablatures, lyrics

Guitar lessons | Add/correct | Request | Top 50 tabs Artists:  A B C D E F G H I J K L M N O P Q R S T U V W X Y Z 0-9

Hari Ng Kaluwalhatian Guitar Tabs – Faith Music Manila

CD, Sheet music, Poster

Do you like Hari Ng Kaluwalhatian? Share with your friends now
Tabs
Song Title: Hari ng Kaluwalhatian
Album Title: Hari ng Kaluwalhatian


Intro: B-B-E-E-G#m-F#-E 

Guitar Intro:
e------------------------7-6-7--11-14-9--|
B-7~---s9-p5---5-7-9--------------------|
G----------------------------------------|
D----------------------------------------|
A----------------------------------------|
E----------------------------------------|


Verse I:
B	      E   
Sa simula, Ikaw ang salita
G#m	 F#       E  E
Ngalan Moy kamangmangha.
	E	B
	Sa kalagitnaan ng unos, 
	E       B	
        kinalma Mo ang mga alon
        E	 B          F#
        Kapayapaan Mo ang dumaloy


Intro II: B-B-E-E
Guitar 1:
e-------------------------|
B-7~---s9-p5------0-2----|
G-------------------------|
D-------------------------|
A-------------------------|
E-------------------------|


B	      E   
Sa simula, Ikaw ang salita
G#m	 F#       E  E
Ngalan Moy kamangmangha.
	E	B
	Sa kalagitnaan ng unos, 
	E       B	
        kinalma Mo ang mga alon
        E	 B          F#
        Kapayapaan Mo ang dumaloy



Chorus:
E		B		   F#
Ikaw ang Hari ng, Hari ng Kaluwalhatian
E     G#m	  F#
Diyos na Makapangyarihan.
E		 B			F#
Lahat ng mga labi at mga lahi silay magsasabing
E		G#m	   F#
Ikaw ang Haring Kaluwalhatian.


Intro II: B-B-E-E
Guitar1:
e-------------------------|
B-7~---s9-p5------0-2----|
G-------------------------|
D-------------------------|
A-------------------------|
E-------------------------|


Verse II:
Siyay nagmula sa walang hanggang Ama
Kaharian Niyay walang wakas.
	
Sa kalagitnaan ng unos, 
kinalma Mo ang mga alon
Kapayapaan Mo ang dumaloy


Chorus:
E		B		   F#
Ikaw ang Hari ng, Hari ng Kaluwalhatian
E     G#m	  F#
Diyos na Makapangyarihan.
E		 B			F#
Lahat ng mga labi at mga lahi silay magsasabing
E		G#m	   F#
Ikaw ang Haring Kaluwalhatian.



Bridge:
E         B
Inalay ang buhay Mo
E	      B
Sa Krus Ikaw ay pinako
E	     B	       F#
Ngunit kamatayan ay nabigo.


Intro: B-B-E-E-G#m-F#-E 

Guitar Intro:
e------------------------7-6-7--11-14-9--|
B-7~---s9-p5---5-7-9--------------------|
G----------------------------------------|
D----------------------------------------|
A----------------------------------------|
E----------------------------------------|






THAT'S ALL..MY BROTHERS,
KEEP ON SERVING OUR LORD
JESUS CHRIST THE ORIGINAL SUPERMAN





Comments


Popular Faith Music Manila tabs & chords
Akoy Iniligtas Mo Chords
Alay Sa Iyo Rlmcc Chords
Dakilang Gawa Chords
Ilog Ng Buhay Chords
Luklukan Chords
Salamat Salamat Chords
Akoy Iniligtas Mo Ukulele
Alay Sa Iyo Rlmcc Ukulele
Luklukan Ukulele
Wala Kang Katulad Ukulele


Song lyrics



↑ Back to top | Tablatures and chords are parodies/interpretations of the original songs. You may use it for private study, scholarship, research or language learning purposes only
© 2014 AZChords.com Contact us | Privacy policy | DMCA | Add/correct tabs | Request tabs | Top 50 tabs