» » »

Ikaw Ang Mahalaga Tabs (ver.1)

Artists:  A B C D E F G H I J K L M N O P Q R S T U V W X Y Z # 

Ikaw Ang Mahalaga Tabs (ver.1)

Faith Music Manila
Rating:
0/5 (0 votes)

Hard to play? Try these video lessons and learn fast.
                Song Title: Ikaw ang Mahalaga
Album Title: Hari ng Kaluwalhatian


Intro: E-B-A-B
Guitar Intro:
e-----------------------------------|
B--12-12-12-10-9-7--5-7-9-5-5--5-7-7|
G-----------------------------------|
D-----------------------------------|
A-----------------------------------|
E-----------------------------------|


e-----------------------------12-11-7-|
B--12-12-12-10-9-7--5-7-5-5-----------|
G-------------------------------------|
D-------------------------------------|
A-------------------------------------|
E-------------------------------------|

Verse I:
E	F#m
Ang nais ko,
 A        	B
manatili sa piling Mo
E		F#m
maghapon at magdamag
A		B
Ikaw ang hinahanap Ko.

Pre-Chorus: 
C#m	B	  A
Lumalapit ako sa Iyo
C#m		 B
nagpapakumbaba
C#m
iniibig Kita
	B
pinupuri Ka.

Chorus:
E	  B	  A		   B
Ikaw ang mahalaga, pumapawi ng uhaw ko
E	       B	A		B
Wala ng hihigit pa sa pagibig na inialay Mo.

Intro: E-B-A-B
Guitar Intro:
e-----------------------------12-11-7-|
B--12-12-12-10-9-7--5-7-5-5-----------|
G-------------------------------------|
D-------------------------------------|
A-------------------------------------|
E-------------------------------------|


Verse I:
E	F#m
Ang nais ko,
 A        	B
manatili sa piling Mo
E		F#m
maghapon at magdamag
A		B
Ikaw ang hinahanap Ko.

Pre-Chorus: 
C#m	B	   A
Lumalapit ako sa Iyo
C#m		 B
nagpapakumbaba
C#m
iniibig Kita
	B
pinupuri Ka.

Chorus:
E	  B	  A		   B
Ikaw ang mahalaga, pumapawi ng uhaw ko
E	       B	A		B
Wala ng hihigit pa sa pagibig na inialay Mo.



Pre-Chorus: 
C#m	B	   A
Lumalapit ako sa Iyo
C#m		 B
nagpapakumbaba
C#m
iniibig Kita
	B
pinupuri Ka.

C#m
iniibig Kita
	B	   (break)
pinupuriKa.

(acoustic guitar and drums only):
Chorus:
E	  B	  A		   B
Ikaw ang mahalaga, pumapawi ng uhaw ko
E	       B	A		B
Wala ng hihigit pa sa pagibig na inialay Mo.



Chorus2:
Ikaw ang mahalaga,Siyang nagbibigay kalakasan ko
wala ng hihigit pa sa buhay na inialay Mo.



Outro: E-B-A-B
Guitar Outro:
e-----------------------------------|
B--12-12-12-10-9-7--5-7-9-5-5--5-7-7|
G-----------------------------------|
D-----------------------------------|
A-----------------------------------|
E-----------------------------------|

e-----------------------------12-11-7-|
B--12-12-12-10-9-7--5-7-5-5-----------|
G-------------------------------------|
D-------------------------------------|
A-------------------------------------|
E-------------------------------------|






THAT'S ALL..MY BROTHERS,
KEEP ON SERVING OUR LORD
JESUS CHRIST THE ORIGINAL SUPERMAN
            
Hard to play? Try these video lessons and learn fast. | Correct




comments powered by Disqus
↑ Back to top | Tablatures and chords are parodies/interpretations of the original songs. You may use it for private study, scholarship, research or language learning purposes only