» » »

Fairweather, Whatever It Takes Tabs (ver.2)

Artists:  A B C D E F G H I J K L M N O P Q R S T U V W X Y Z # 

Whatever It Takes Tabs (ver.2)

Fairweather Tabs
 Rating:
4/5 (4 votes)
Whatever It Takes lessons Tabs too difficult? Try these video lessons and learn fast
                Fairweather-Whatever it Takes

Drop D Tuning!

Intro

E------------------------55-----55---55----55--------------9------
B-------555555555--------55-----55---55----55-------5------9-----
G-------777777777--------55-----55---55----55-------7(4x)--9(4x)-
D-------777777777--------55-----55---55----55-------7------9------
A------------------------55-----55---55----55--------------9------
E----------------------------------------------------------9------


E---------------------55---------------------9--------------------
B------5--------------55---------5-----------9--------------------
G------7(4x)----------55-(4x)----7(4x)-------9-(8X)---------------
D------7--------------55---------7-----------9--------------------
A---------------------55---------------------9--------------------
E-----------------------------------------------------------------


E-----------------55-----78910-----------55----------78910-------
B-----------------55---------------------55----------------------
G-----------------55---------------------55(12x)-----------------
D-----------------55(4x)-----------------55----------------------
A-----------------55---------------------55----------------------
E-----------------55---------------------55----------------------

Repeat Intro again Afterwards that goes on until the solo.


E----------------------------------------------------------------
B----------------------------------------------------------------
G----------------------------------------------------------------
D----------------------------653---------------------------------
A-------2-----4-----6------------------2----4----6-----643-------
E----------------------------------------------------------------


E-------------------55---------------------------------------------
B-------------------55---------------------------------------------
G-------------------55-(repeats til end of song)-------------------
D-------------------55---------------------------------------------
A-------------------55---------------------------------------------
E-------------------55---------------------------------------------

Words:
September isn't too far and I'm not sure I'll return but I know its what you want Whatever it takes for you to try to let me go though you're scared I'll go too far It's feeling like forever I'm not sure where I'm going It's feeling like forever Not sure, Not sure Just give me one last chance to shine before I fade Please give me one last chance to shine, fade away This is the season to break me, I'm not sure I've said Autumn colors and sour skies, convincing to stay in bed Say you will and mean it Say you will I'm running out of drive to fight with you So you say you've got the answers to our problems never-ending Don't have faith that you can let go of our difference causing friction
            
Submit corrections

comments powered by Disqus
↑ Back to top | Fairweather Tabs for Whatever It Takes. Lyrics for acoustic guitar and electric guitar. Tablatures and chords are parodies/interpretations of the original songs. You may use it for private study, scholarship, research or language learning purposes only