» » »

Fairweather, Whatever It Takes Tabs (ver.1)

Artists:  A B C D E F G H I J K L M N O P Q R S T U V W X Y Z # 

Whatever It Takes Tabs (ver.1)

Fairweather Tabs
Rating:
0/5 (0 votes)
Whatever It Takes lessons Tabs too difficult? Try these video lessons and learn fast
                Fairweather
...If They Move, Kill Them
I came across this tab at absolutepunk.net and it seemed
so much more acurate then the other tab on this site
so i submitted it

e|-----------|--------------------| 
B|-----------|--------------------| 
G|-4---7---7-|-4---7-9-9-9/11\9-7-| 
D|-4---7---7-|-4---7-X-X-X/-X\X-X-| 
A|-2---5---5-|-2---5-7-7-7/-9\7-5-| 
D|---------5-|--------------------| 

Pre-Chorus ("It's feeling like forever...") 
e|-------------------------|-----------| 
B|-------------------------|-----------| 
G|-4---7---7-----7---7h9-9-|-4---7---7-| 
D|-4---7---7-7h9---9-------|-4---7---7-| 
A|-2---5---5---------------|-2---5---5-| 
D|---------5---------------|---------5-| 

Chorus ("Just give me one last chance to shine..." 
e|----------------| 
B|----------------| 
G|-7---7---11---7-| 
D|-7---7----X---X-| 
A|-5---5----9---5-| 
D|-----5----------| 

Bridge 1 (This may be off a little.) 
e|----------------------------| 
B|----------------------------| 
G|-9---7---11---7---7---------| 
D|-X---X----X---X---7---------| 
A|-7---5----9---5---5---2---0-| 
D|------------------5---2---0-| 

Bridge 2 
pm under lead 
e|-----------------------------|-------| 
B|-----------------------------|-------| 
G|-------0h2-0-----------------|-----4-| 
D|-------------4-------0h2-0---|-----4-| 
A|-2-4-5---------2-4-5-------4-|-5---2-| 
D|-----------------------------|-5-----| 

Fill 
e|--------| 
B|--------| 
G|-11/9/7-| 
D|--X/X/X-| 
A|--9/7/5-| 
D|--------| 

Breakdown 
e|----------------------------------| 
B|----------------------------------| 
G|--------------------------------7-| 
D|--------------------------------7-| 
A|-0-0--0-0--0-0-0--5-5--5-5--5-5-5-| 
D|-0-0--0-0--0-0-0--5-5--5-5--5-5-5-| 
pm............................ 

Outro 
e|-------|-------------| 
B|-------|-------------| 
G|-----7-|-------0h2-0-| 
D|-----7-|-------------| 
A|-0---5-|-2-4-5-------| 
D|-0---5-|-------------|
            

comments powered by Disqus
↑ Back to top | Fairweather Tabs for Whatever It Takes. Lyrics for acoustic guitar and electric guitar. Tablatures and chords are parodies/interpretations of the original songs. You may use it for private study, scholarship, research or language learning purposes only