» » »

Fair To Midland, Upgradebrigade Tabs (ver.1)

Artists:  A B C D E F G H I J K L M N O P Q R S T U V W X Y Z # 

Upgradebrigade Tabs (ver.1)

Fair To Midland Tabs
 Rating:
3.7/5 (6 votes)
Upgradebrigade lessons Tabs too difficult? Try these video lessons and learn fast
1
                tuned CGCGCC
C[----------------------------------------------------------------|
C[----------------------------------------------------------------|
G[----------------------------------------------------------------|
C[-8-7-5-7-0--8-7-5-7-0--8-7-5-7--8-7-5-7-0--8-7-5-7-0--8-7-5-7---|
G[-8-7-5-7-0--8-7-5-7-0--8-7-5-7--8-7-5-7-0--8-7-5-7-0--8-7-5-7---|
C[-8-7-5-7-0--8-7-5-7-0--8-7-5-7--8-7-5-7-0--8-7-5-7-0--8-7-5-7---|

C[-8-7-5-7-0--8-7-5-7-0--8-7-5-7--10-10-8-3-|
G[-8-7-5-7-0--8-7-5-7-0--8-7-5-7--10-10-8-3-|
C[-8-7-5-7-0--8-7-5-7-0--8-7-5-7--10-10-8-3-|


C[---------------------------------------------------------------|
C[---------------------------------------------------------------|
G[---------------------------------------------------------------|
C[-8-7-5-0-0--8-7-5-0-0--8-7-5-0-8-7-5-0-0--8-7-5-0-0--8-7-5-0---|
G[-8-7-5-0-0--8-7-5-0-0--8-7-5-0-8-7-5-0-0--8-7-5-0-0--8-7-5-0---|
C[-8-7-5-0-0--8-7-5-0-0--8-7-5-0-8-7-5-0-0--8-7-5-0-0--8-7-5-0---|

C[-8-7-5-0-0--8-7-5-0-0--8-7-5-0--10-10-8-3-0-|
G[-8-7-5-0-0--8-7-5-0-0--8-7-5-0--10-10-8-3-0-|
C[-8-7-5-0-0--8-7-5-0-0--8-7-5-0--10-10-8-3-0-|

C[-5-5--5-5-7-7-777777777777-------------------|slowly bend
C[-5-5--5-5-7-7--------------------------------|
G[-5-5--5-5-7-7--------------------------------|
C[-5-5--5-5-7-7--------------------------------|
G[---------------------------------------------|
C[---------------------------------------------|

C[----I'm not shure about this but its as close as i'll ever get
C[--------------------------------------------------------------|
G[-3-5--5-3-5h7-7h8-8h10-8p7---3-5--5-3-7h8-8-h-10-10h12-12h13--|
C[--------------------------------------------------------------|
G[--------------------------------------------------------------|
C[--------------------------------------------------------------|


C[---------------------------------------------|
C[---------------------------------------------|
G[-3-5--5-3-5h7-7h8-10p8-7h8-3h5-8p7-7h8-8p7-3-|
C[---------------------------------------------|
G[---------------------------------------------|
C[---------------------------------------------|


C[--------------------------------------------------------------|
C[--------------------------------------------------------------|
G[-3-5--5-3-5h7-7h8-8h10-8p7---3-5--5-3-7h8-8-h-10-10h12-12h13--|
C[--------------------------------------------------------------|
G[--------------------------------------------------------------|
C[--------------------------------------------------------------|


C[---------------------------------------------|
C[---------------------------------------------|
G[-3-5--5-3-5h7-7h8-10p8-7h8-3h5-8p7-3h5-8p7-3-|
C[---------------------------------------------|
G[---------------------------------------------|
C[---------------------------------------------|


C[-7-777-7-7-5-5-5-555-555-55-333-7-777-7-7-5-5-5--|
C[-7-777-7-7-5-5-5-555-555-55-333-7-777-7-7-5-5-5--|
G[-7-777-7-7-5-5-5-555-555-55-333-7-777-7-7-5-5-5--|
C[-7-777-7-7-5-5-5-555-555-55-333-7-777-7-7-5-5-5--|
G[-------------------------------------------------|
C[-------------------------------------------------|

C[---------------------------------------------------------------|
C[---------------------------------------------------------------|
G[-7-xx-7-5-5-3-xx-xx-0-0-7-xx-7-5-5-10-10-10-10-10-10-10-10-----|
C[-7-xx-7-5-5-3-xx-xx-0-0-7-xx-7-5-5-10-10-10-10-10-10-10-10-----|
G[-7-xx-7-5-5-3-xx-xx-0-0-7-xx-7-5-5-10-10-10-10-10-10-10-10-----|
C[-7-xx-7-5-5-3-xx-xx-0-0-7-xx-7-5-5-----------------------------|


C[----------------------------------------------------------------------|
C[----------------------------------------------------------------------|
G[-0-0-00-0-0000-10--10--10-10--10-10-10-10-8-8-88-8-8888--8-7-2-3-10---|
C[-0-0-00-0-0000-10--10--10-10--10-10-10-10-8-8-88-8-8888--8-7-2-3-10---|
G[-0-0-00-0-0000-10--10--10-10--10-10-10-10-8-8-88-8-8888--8-7-2-3-10---|
C[-0-0-00-0-0000-10--10--10-10--10-10-10-10-8-8-88-8-8888--8-7-2-3-10---|


C[----------------------------------------------------------------------|
C[----------------------------------------------------------------------|
G[-0-0-00-0-0000-10--10--10-10--10-10-10-10-8-8-88-8-8888--8-7-2-3-10---|
C[-0-0-00-0-0000-10--10--10-10--10-10-10-10-8-8-88-8-8888--8-7-2-3-10---|
G[-0-0-00-0-0000-10--10--10-10--10-10-10-10-8-8-88-8-8888--8-7-2-3-10---|
C[-0-0-00-0-0000-10--10--10-10--10-10-10-10-8-8-88-8-8888--8-7-2-3-10---|


C[----------------------------------------------------------------|
C[----------------------------------------------------------------|
G[----------------------------------------------------------------|
C[-8-7-5-7-0--8-7-5-7-0--8-7-5-7--8-7-5-7-0--8-7-5-7-0--8-7-5-7---|
G[-8-7-5-7-0--8-7-5-7-0--8-7-5-7--8-7-5-7-0--8-7-5-7-0--8-7-5-7---|
C[-8-7-5-7-0--8-7-5-7-0--8-7-5-7--8-7-5-7-0--8-7-5-7-0--8-7-5-7---|

C[-8-7-5-7-0--8-7-5-7-0--8-7-5-7--10-10-8-3-|
G[-8-7-5-7-0--8-7-5-7-0--8-7-5-7--10-10-8-3-|
C[-8-7-5-7-0--8-7-5-7-0--8-7-5-7--10-10-8-3-|

C[--------------------------------------------------------------|
C[--------------------------------------------------------------|
G[-3-5--5-3-5h7-7h8-8h10-8p7---3-5--5-3-7h8-8-h-10-10h12-12h13--|
C[--------------------------------------------------------------|
G[--------------------------------------------------------------|
C[--------------------------------------------------------------|


C[---------------------------------------------|
C[---------------------------------------------|
G[-3-5--5-3-5h7-7h8-10p8-7h8-3h5-8p7-7h8-8p7-3-|
C[---------------------------------------------|
G[---------------------------------------------|
C[---------------------------------------------|


C[--------------------------------------------------------------|
C[--------------------------------------------------------------|
G[-3-5--5-3-5h7-7h8-8h10-8p7---3-5--5-3-7h8-8-h-10-10h12-12h13--|
C[--------------------------------------------------------------|
G[--------------------------------------------------------------|
C[--------------------------------------------------------------|


C[---------------------------------------------|
C[---------------------------------------------|
G[-3-5--5-3-5h7-7h8-10p8-7h8-3h5-8p7-3h5-8p7-3-|
C[---------------------------------------------|
G[---------------------------------------------|
C[---------------------------------------------|


C[-7-777-7-7-5-5-5-555-555-55-333-7-777-7-7-5-5-5--|
C[-7-777-7-7-5-5-5-555-555-55-333-7-777-7-7-5-5-5--|
G[-7-777-7-7-5-5-5-555-555-55-333-7-777-7-7-5-5-5--|
C[-7-777-7-7-5-5-5-555-555-55-333-7-777-7-7-5-5-5--|
G[-------------------------------------------------|
C[-------------------------------------------------|

C[---------------------------------------------------------------|
C[---------------------------------------------------------------|
G[-7-xx-7-5-5-3-xx-xx-0-0-7-xx-7-5-5-10-10-10-10-10-10-10-10-----|
C[-7-xx-7-5-5-3-xx-xx-0-0-7-xx-7-5-5-10-10-10-10-10-10-10-10-----|
G[-7-xx-7-5-5-3-xx-xx-0-0-7-xx-7-5-5-10-10-10-10-10-10-10-10-----|
C[-7-xx-7-5-5-3-xx-xx-0-0-7-xx-7-5-5-----------------------------|


C[----------------------------------------------------------------------|
C[----------------------------------------------------------------------|
G[-0-0-00-0-0000-10--10--10-10--10-10-10-10-8-8-88-8-8888--8-7-2-3-10---|
C[-0-0-00-0-0000-10--10--10-10--10-10-10-10-8-8-88-8-8888--8-7-2-3-10---|
G[-0-0-00-0-0000-10--10--10-10--10-10-10-10-8-8-88-8-8888--8-7-2-3-10---|
C[-0-0-00-0-0000-10--10--10-10--10-10-10-10-8-8-88-8-8888--8-7-2-3-10---|


C[----------------------------------------------------------------------|
C[----------------------------------------------------------------------|
G[-0-0-00-0-0000-10--10--10-10--10-10-10-10-8-8-88-8-8888--8-7-2-3-10---|
C[-0-0-00-0-0000-10--10--10-10--10-10-10-10-8-8-88-8-8888--8-7-2-3-10---|
G[-0-0-00-0-0000-10--10--10-10--10-10-10-10-8-8-88-8-8888--8-7-2-3-10---|
C[-0-0-00-0-0000-10--10--10-10--10-10-10-10-8-8-88-8-8888--8-7-2-3-10---|

C[-----------------------------------------------------------|
C[-----------------------------------------------------------|
G[-----------------------------------------------------------|
C[---------------------------------8-7-2-3-10----------------|
G[---------------------------------8-7-2-3-10----------------|
C[-12-8-10-8-10-8-3-0-8-9-8-10-8---8-7-2-3-10----------------|


C[----------------------------------------------------------------------|
C[----------------------------------------------------------------------|
G[-0-0-00-0-0000-10--10--10-10--10-10-10-10-8-8-88-8-8888--8-7-2-3-10---|
C[-0-0-00-0-0000-10--10--10-10--10-10-10-10-8-8-88-8-8888--8-7-2-3-10---|
G[-0-0-00-0-0000-10--10--10-10--10-10-10-10-8-8-88-8-8888--8-7-2-3-10---|
C[-0-0-00-0-0000-10--10--10-10--10-10-10-10-8-8-88-8-8888--8-7-2-3-10---|


C[----------------------------------------------------------------------|
C[----------------------------------------------------------------------|
G[-0-0-00-0-0000-10--10--10-10--10-10-10-10-8-8-88-8-8888--8-7-2-3-10---|
C[-0-0-00-0-0000-10--10--10-10--10-10-10-10-8-8-88-8-8888--8-7-2-3-10---|
G[-0-0-00-0-0000-10--10--10-10--10-10-10-10-8-8-88-8-8888--8-7-2-3-10---|
C[-0-0-00-0-0000-10--10--10-10--10-10-10-10-8-8-88-8-8888--8-7-2-3-10---|

C[----------------------------------------|
C[--------12-12-12-12-------12-12-12-12---|
G[----------------------------------------|
C[----------------------------------------|
G[-0-0-0-0----------0-0-0-0---------------|
C[-0-0-0-0----------0-0-0-0---------------|

C[----------------------------------------------|
C[------------14-14-14-14-----------14-14-14-14-|
G[----------------------------------------------|
C[----------------------------------------------|
G[----------------------------------------------|
C[-10-10-10-10-----------10-10-10-10------------|


C[----------------------------------------|
C[---------15-15-15-15-------15-15-15-15--|
G[----------------------------------------|
C[----------------------------------------|
G[-8-8-8-8------------8-8-8-8-------------|
C[-8-8-8-8------------8-8-8-8-------------|

C[-------------------|
C[-------------------|
G[-8-7-2-3-10--------|
C[-8-7-2-3-10--------|
G[-8-7-2-3-10--------|
C[-8-7-2-3-10--------|

C[----------------------------------------|
C[--------12-12-12-12-------12-12-12-12---|
G[----------------------------------------|
C[----------------------------------------|
G[-0-0-0-0----------0-0-0-0---------------|
C[-0-0-0-0----------0-0-0-0---------------|

C[----------------------------------------------|
C[------------14-14-14-14-----------14-14-14-14-|
G[----------------------------------------------|
C[----------------------------------------------|
G[----------------------------------------------|
C[-10-10-10-10-----------10-10-10-10------------|


C[----------------------------------------|
C[---------15-15-15-15-------15-15-15-15--|
G[----------------------------------------|
C[----------------------------------------|
G[-8-8-8-8------------8-8-8-8-------------|
C[-8-8-8-8------------8-8-8-8-------------|

C[----------------------------|
C[----------------------------|
G[-8-7-2-3-10--8-7-2-3-10--0--|
C[-8-7-2-3-10--8-7-2-3-10--0--|
G[-8-7-2-3-10--8-7-2-3-10--0--|
C[-8-7-2-3-10--8-7-2-3-10--0--|
            
Submit corrections

comments powered by Disqus
↑ Back to top | Fair To Midland Tabs for Upgradebrigade. Lyrics for acoustic guitar and electric guitar. 1 Tablatures and chords are parodies/interpretations of the original songs. You may use it for private study, scholarship, research or language learning purposes only