» » »

Fair To Midland, Musical Chairs Bass tabs (ver.1)

Artists:  A B C D E F G H I J K L M N O P Q R S T U V W X Y Z # 

Musical Chairs Bass tabs (ver.1)

Fair To Midland Tabs
 Rating:
4.3/5 (6 votes)
Musical Chairs lessons Tabs too difficult? Try these video lessons and learn fast
                I hope this isnt too hard to understand, this is my first tab! And it was worked out by 
ear, and a bad live video which shows a few shots of Jon playing. Anyway!

Piano intro, then

F------------------|
C------------------|
G------------------|
C-------8--8--8--8-|

Riff 1:

F-----------------------------|
C-----------------------------|
G------------------------3-5-6|
C--12\-030-5-5555555-6-0------|

Break 1:

F------------|
C------------|
G------------|
C-0--0--0--0-|

Verse:

F----------------------------------|
C-0h5p0h5h7-0h7h8-0h8h10-0h10h12h13|
G----------------------------------|
C----------------------------------|

Variation to this riff cuts off the first open C note.

Verse Break:


F----------------------------------|
C----------------------------------|
G----------------------------------|
C-0h5p0h5h7-0h7h8-0h8h10-0h10h12h13|

Chorus:

F--------------------------------------------------------|
C--------------------------------------------------------|
G--------------------------------------------------------|
C-6-6-66-6/8-8\00-0-0-000-00-3-3-3-33-3-33-3/5-5-5-5555-5|


F--------------------------------------------------------|
C--------------------------------------------------------|
G--------------------------------------------------------|
C5/6666-66/8-8\00-0-0-000-00-3-3-3-33-3-33-3\1-1-1-1111-1|

Break 2 (which is followed by Piano & vocal interlude)

F---------------------------------------------|
C---------------------------------------------|
G---------------------------------------------|
C-0h10h12h13-0h10h12h13-0h10h12h13-0h10h12h13-|


Not quite sure on outro, Its similar to break 2, but moves slightly up fretboard.

Song order

Intro
Riff 1 x3
Break 1 x1
Verse x2
Verse Variation x2
Verse x2
Verse Variation x1
Verse Break x1
Riff 1 x2
Chorus x1
Verse x2
Verse Variation x2
Verse x2
Verse Variation x1
Verse Break x1
Riff 1 x2
Chorus x1
Break x1
Piano Interlude
Chorus X3
Break 1 x1
Riff 1 x4
Outro

Thankyou for looking! :)
            
Submit corrections

comments powered by Disqus
↑ Back to top | Fair To Midland Bass for Musical Chairs. Lyrics for acoustic guitar and electric guitar. Tablatures and chords are parodies/interpretations of the original songs. You may use it for private study, scholarship, research or language learning purposes only