>
 >
Wonderful Life 1

Wonderful Life 1 Guitar Tabs

Failure - Wonderful Life 1 chords, tabs, tablatures, lyrics

Guitar lessons | Add/correct | Request | Top 50 tabs Artists:  A B C D E F G H I J K L M N O P Q R S T U V W X Y Z 0-9

Wonderful Life 1 Guitar Tabs – Failure

CD, Sheet music, Poster

Do you like Wonderful Life 1? Share with your friends now
TabsTabs v2
Wonderful Life by Failure
Tablature by Aaron Honsberger
Double Drop D Tuning (dadgbd)
Legend: p = Pull Off, h = Hammer, s = Slide, x = Open Scratch,

* Almost certain it's not 100 %, but its close.*

Part 1(0:01 min/sec)

** Turn Guitar Volume Low And Pinch Harmonic All Notes **
--------------------------------------------------|
---------------------------------------7b-7b------|
----------------6b-6b----------------6b-6b--------|  X2
--6b86b86b86b-6b-6b----6b8b6b8b6b8b6b-------8b----|
--------------------------------------------------|
--------------------------------------------------|


Part 2 (0:09 min/sec)

** Turn Guitar Volume Full And Pinch Harmonic All Notes **
-----------------------------------------------|
------------------------------------7b-7b------|
---------------6b-6b--------------6b-6b--------| X2
--6b86b86b86b-6b-6b----6b8b6b8b6b--------8b----|
-----------------------------------------------|
-----------------------------------------------|


Part 3 (0:20 min/sec)

* Besure To Sustain All Chords **
------------------------------|
7-----7-----4-----9s7---------|
6-----6-----3-----8s6---------|
4-----4-----1-----6s4---------|  (x3)
4-----4-----1-----6s4---------|
4-x-x-4-x-x-1-x-x-6s4---------|

-------------------------|
7-----7-----4-----9------|
6-----6-----3-----8------|
4-----4-----1-----6------|  (x1)
4-----4-----1-----6------|
4-x-x-4-x-x-1-x-x-6------|


 Part 4 (0:46 min/sec)

** Palm Mute These 4 Bars **

--------------------------------|
--------------------------------|
--------------------------------|
------7-----6----4----2---------| (X3)
--7-7---6-6---4-4--2-2----------|
-7-7-7-6-6-6-4-4--2-2-----------|


(1:06 min/sec)

** Play Louder  **
----------------------------------|
--------9999999-7777777-5555555---|
9999999-8888888-6666666-4444444---|
7777777-6666666-4444444-2222222---|  (x1)
7777777-6666666-4444444-2222222---|
7777777-6666666-4444444-2222222---|


(1:11 min/sec)

** Repeat Part 2 (X1) **

(1:16 min/sec)

** Repeat Part 3 (X4)**


(1:40 min/sec)

** Palm Mute the First 3 Bars **
--------------------------|
--------------------------|
--------------------------|
------7-----6----4----2---|(X3)
--7-7---6-6---4-4--2-2----|
-7-7-7-6-6-6-4-4--2-2-----|

(1:59 min/sec)

** ( Play The Last Bar Open) **
--------------------------------------|
--------9999999-7777777-5555555-------|
9999999-8888888-6666666-4444444-------|
7777777-6666666-4444444-2222222-------|   (x1)
7777777-6666666-4444444-2222222-------|
7777777-6666666-4444444-2222222-------|


Part 5 (2:04 min/sec)

** Slightly Bend These Chords **
--------------------------|
-6666-6-44-----4b---------|
-5555-5-33-------3b-------|
-3333-3-11---1-----1b-----| (X3)
-3333-3-11----------------|
-3333-3-11----1-----------|


(2:23 min/sec)

** (Same as First 3 Bars, Except Exclude Last Note) **
----------------------|
-6666-6-44-----4b-----|
-5555-5-33-------3b---|
-3333-3-11---1--------|(X1)
-3333-3-11------------|
-3333-3-11----1-------|

(2:30 min/sec) (Repeat Part 4 Last Bar) (X1)

(2:36 min/sec) (Repeat Part 2) (X1)

(2:42 min/sec) (Repeat Part 4 Last Bar) (X1)

(2:48 min/sec) (Repeat Part 2) (X1)

(2:54 min/sec) (Repeat Part 4 Last Bar) (X1)

(3:00 min/sec) (Repeat Part 2) (X1)

(3:07 min/sec) (Repeat Part 3) (X4)

(3:30 min/sec) (Repeat Part 5) (X8)

*** However, Play the Last Bar Like This ***

(4:14 min/sec)

** Slightly Bend These Chords And Hold Last Note **
-----------------------------|
-6666-6-44-----4b------------|
-5555-5-33-------3b-----8b---|
-3333-3-11---1-----1b--------|
-3333-3-11-------------------|
-3333-3-11----1--------------|

Part 6 Outro (4:30 min/sec)

**Play Softly With Lots of Flanger,Phaser And Delay**
-------------------------|
-------------------------|
--------------6b---------|   X4
-----6b---6b-------------|
-0-4b-------4b-----------|
-------------------------|


(4:58 min/sec)

(**Play Loudly With Lots of Flanger,Phaser And Delay**)
(** Sustain Last Chord **)
---------------------------|
---------------14b---------|
---------------13b---------|   X4
-----6b---6b---11b---------|
-0-4b-------4b-------------|
---------------------------|

End Of Song





Comments


Popular Failure tabs & chords
Bernie Tabs
Dirty Blue Ballons Tabs
Pillowhead Tabs
Pitiful Tabs
Sergeant Politeness Tabs
Stuck On You 1 Tabs
The Nurse Who Loved Me Tabs
The Nurse Who Loved Me 2 Tabs
Stuck On You Ukulele
The Nurse Who Loved Me Ukulele


Song lyrics



↑ Back to top | Tablatures and chords are parodies/interpretations of the original songs. You may use it for private study, scholarship, research or language learning purposes only
© 2014 AZChords.com Contact us | Privacy policy | DMCA | Add/correct tabs | Request tabs | Top 50 tabs