» » »

Failure, Sergeant Politeness Tabs (ver.1)

Artists:  A B C D E F G H I J K L M N O P Q R S T U V W X Y Z # 

Sergeant Politeness Tabs (ver.1)

Failure Tabs
 Rating:
4/5 (4 votes)
Sergeant Politeness lessons Tabs too difficult? Try these video lessons and learn fast
                Failure - Sergeant Politeness
tuned:  Db Ab Db Gb Bb Db

intro (acoustic and palm-muted)
-------------------------------------------------
-------------------------------------------------
-------------------------------------------------
-------7-7-7-7--------5-5-5-5-/-10-10-10-10------
-7-6-0-5-5-5-5--5-3-0-3-3-3-3-/-8--8--8--8-------
-7-6-0-5-5-5-5--5-3-0-3-3-3-3-/-8--8--8--8-------

heavy distortion
-------7-7-7-7--------5-5-5-5-/-10-10-10-10------
-------7-7-7-7--------5-5-5-5-/-10-10-10-10------
-------7-7-7-7--------5-5-5-5-/-10-10-10-10------
-------7-7-7-7--------5-5-5-5-/-10-10-10-10------
-7-6-0-5-5-5-5--5-3-0-3-3-3-3-/-8--8--8--8-------
-7-6-0-5-5-5-5--5-3-0-3-3-3-3-/-8--8--8--8-------

-------7-7-7-7--------5-5-5-5--3-3-3-3----------
-------7-7-7-7--------5-5-5-5--3-3-3-3----------
-------7-7-7-7--------5-5-5-5--3-3-3-3----------
-------7-7-7-7--------5-5-5-5--3-3-3-3----------
-7-6-0-5-5-5-5--5-3-0-3-3-3-3--1-1-1-1----------
-7-6-0-5-5-5-5--5-3-0-3-3-3-3--1-1-1-1----------

verse (heavy distortion, palm mute consecutive same notes only)
[they'll never find out just where i hid them...]
-------------------------------------------------
-------------------------------------------------
-------------------------------------------------
-------------------------------------------------
-7-6-0-5-5-5-5--5-3-0-3-3-3-3-/-8-8-8-8----------
-7-6-0-5-5-5-5--5-3-0-3-3-3-3-/-8-8-8-8----------

-------------------------------------------------
-------------------------------------------------
-------------------------------------------------
-------------------------------------------------
-7-6-0-5-5-5-5--5-3-0-3-3-3-3--1-1-1-1----------
-7-6-0-5-5-5-5--5-3-0-3-3-3-3--1-1-1-1----------

chorus (heavy distortion)
[seargent politeness, searching for weak points...]
-------------------------------------------------
-------------------------------------------------
----------------------10-10-9--9--9--9-----------
----------------------10-10-9--9--9--9-----------
-7--8--9--0--0--0--0--8--8--7--7--7--7-----------
-7--8--9--0--0--0--0--8--8--7--7--7--7-----------

solo (if this can really be called one)
[done with a flanger, repeat 4 times, and feedback]
-------------------------------------------------
-------------------------------------------------
--------7b--------12----12-----10b---------------
-7--10------10-10----10----12------12--12--------
-------------------------------------------------
-------------------------------------------------

guitar underneath feedback (acoustic)
[use a C major chord figure moved up two frets, repeat a # of times]
----------0--------------------------------------
--------3----------------------------------------
------0-------0----------------------------------
----4-------4---4--------------------------------
--3----------------------------------------------
-------------------------------------------------

the tricky acoustic part (just listen to the cd)
[i'm so innocent sir that i can't reveal a thing...]
------------0------------------------------------
------0-------0---------3-0----------------------
--------4-------4-----4-----4---4----------------
----0-----3---------0---------0------------------
--5---------------2------------------------------
-------------------------------------------------

intro 1 back into heavy ending (clean, palm-mute g string only)
[seargent politeness, i'm so enlightened...]
--------------------------------7---7------------
--------------------------------7---7------------
--7-7-7-7-7-7-7-7-7-7-7-7-7-7-7---7--------------
-------------------------------------------------
-------------------------------------------------
-------------------------------------------------

intro 2 back into heavy ending (heavy distortion)
[i won't confess now...]
-------------------------------------------------
-------------------------------------------------
--7-7-7-7-7-7-7-7-7-7-7-7-7-7-7-7----------------
--0-0-0-0-0-0-0-0-0-0-0-0-0-0-0-0----------------
----------x-x-x-x-x-x-x-x-x-x-x-x----------------
----------8-8-8-8-9-9-9-9-9-9-9-9----------------

fade out (heave distortion, repeat a few times)
-------------------------------------------------
-------------------------------------------------
-------------------------------------------------
-0-0-0-0-8-8-8-8-9-9-9-9--3-3-3-3---------------
-0-0-0-0-8-8-8-8-9-9-9-9--3-3-3-3---------------
-0-0-0-0-8-8-8-8-9-9-9-9--3-3-3-3---------------

finish (heavy distortion)
[sergeant politeness...]
-------------------------------------------------
-------------------------------------------------
-------------------------------------------------
-0-0-0-0-8-8-8-8-9-9-9-9-8-8-8-8-----------------
-0-0-0-0-8-8-8-8-9-9-9-9-8-8-8-8-----------------
-0-0-0-0-8-8-8-8-9-9-9-9-8-8-8-8-----------------

then...segue 1 (heavy distortion)
-------------------------------------------------
--------------8-7-------------8-7----------------
----9-9-----5-------9-9-----5--------------------
--7-----7-5-------7-----7-5----------------------
--0----------------------------------------------
--0----------------------------------------------

later (up one octave)
-------------------------------------------------
-------------------20-19-------------------20-19-
----21-21-------17----------21-21-------17-------
-19-------19-17----------19-------19-17----------
-------------------------------------------------
-------------------------------------------------


song order
intro
verse
chorus
heavy distorted part of intro
verse
chorus
solo
guitar part underneath feedback (+ feedback)
tricky acoustic part
intro 1 into heavy ending
intro 2 into heavy ending
fade out
finish
segue 1

Note: I didn't put every note in the largely repeated parts of the intro and 
verse, but those should be figured out quite easily.  Don't expect the 
acoustic parts to sound anything like them played electric, obviously you 
can't play the song without 2 guitarists (or a parker fly).  On a different 
note, greg starts out segue 1 with his heavily overdriven bass (probably the 
same notes as the guitar), and the guitar parts come in later, along with 
feedback.  Also make sure to drop both Eb's to Db's, or else you'll think 
this tab really sucks.
            
Submit corrections

comments powered by Disqus
↑ Back to top | Failure Tabs for Sergeant Politeness. Lyrics for acoustic guitar and electric guitar. Tablatures and chords are parodies/interpretations of the original songs. You may use it for private study, scholarship, research or language learning purposes only