» » »

Walk The Walk Bass tabs (ver.2)

Artists:  A B C D E F G H I J K L M N O P Q R S T U V W X Y Z # 

Walk The Walk Bass tabs (ver.2)

Face To Face
Rating:
0/5 (0 votes)

Hard to play? Try these video lessons and learn fast.
                (Intro)
|----------12-------10----9-------10-------9-10-|
|-10-10-10----10-10----10---10-10----10-10------|
|-----------------------------------------------|
|-----------------------------------------------|

|----------12-------10---10-------10-------9-10-|
|-----------------------------------------------|
|-10-10-10----10-10----9----10-10----10-10------|
|-----------------------------------------------|

|-------10-----9---7-----9-----7-9-|
|-8-8-8----8-8---8---8-8---8-8-----|
|----------------------------------|
|----------------------------------|

|-------10-----9---7--9--7--9-|
|-----------------------------|
|-8-8-8----8-8---8--8--8--8---|
|-----------------------------|
            
Hard to play? Try these video lessons and learn fast. | Correct




comments powered by Disqus
↑ Back to top | Tablatures and chords are parodies/interpretations of the original songs. You may use it for private study, scholarship, research or language learning purposes only