» » »

Ordinary Bass tabs (ver.2)

Artists:  A B C D E F G H I J K L M N O P Q R S T U V W X Y Z # 

Ordinary Bass tabs (ver.2)

Face To Face
Rating:
5/5 (1 vote)

Hard to play? Try these video lessons and learn fast.
                So...heres "Ordinary" by Face to Face.  Scott is an amazing bassist but this is one of 
simpler songs, the only sort of hard part would be the bridge jut because it's a little 
 Enjoy!


Intro        Intro 2
G||---------|---------------------|
D||---------|---------------------|
A||-0-----3-|-0000-----------3333-|
E||---0-1---|------0000-1111------|


Verse
|------------------------------------------------------------------|
|---------3--------------------------------------------------------|
|-----3-5---5-3----10-10-10-10-10-10-10-10-10-10-10-10-10-10-10-10-|
|-3~------------3~-------------------------------------------------|


"Ordinary, ordinary..."
|-------|
|-------|
|-------|
|-1~-1~-|


Chorus: "Look in the mirror, it's not enough to make you think that you're not one of us..."
|---------0-00-000-22-2-222--------------------------------------|
|---------------------------3-33-333-----------------------------|
|-3-3-333----------------------------3-3-333---------------------|
|--------------------------------------------3-33-333-1--1--1--1-|


Bridge
|---5--5-5----5--5-5----4--4-4----2--2-2-|
|-77-77-7---55-55-5---55-55-5---33-33-3--|
|----------------------------------------|
|----------------------------------------|


|-------|
|-------|
|-------|
|-5~-3~-|

Sorry, I don't have the order.  My headphones are at my freinds house so I can't listen 
the song.  You can figure it out, it's pretty easy.
            
Hard to play? Try these video lessons and learn fast. | Correct




comments powered by Disqus
↑ Back to top | Tablatures and chords are parodies/interpretations of the original songs. You may use it for private study, scholarship, research or language learning purposes only