» » »

Face To Face, Disconnected Tabs (ver.2)

Artists:  A B C D E F G H I J K L M N O P Q R S T U V W X Y Z # 

Disconnected Tabs (ver.2)

Face To Face Tabs
 Rating:
4/5 (6 votes)
Disconnected lessons Tabs too difficult? Try these video lessons and learn fast
1
                ----------------------------------------------------------------------------
                      FACE TO FACE - DISCONNECTED
----------------------------------------------------------------------------

INTRO(0:00)(2x) (2:44)(4x)                                                                  
e|-------------------|
B|-------------------|
G|------4~-----------|
D|--2~--4~--6~--4~---|
A|--2~--2~--6~--4~---|
E|--0~------4~--2~---|

(0:10)
e|-------------------------------------------------------------------------|
B|-------------------------------------------------------------------------|
G|--9-9-9-9-9-9-9-9---4-4-4-4-4-4-4-4--------------------------------------|
D|--9-9-9-9-9-9-9-9---4-4-4-4-4-4-4-4---6-6-6-6-6-6-6-6---4-4-4-4-4-4-4-4--|
A|--7-7-7-7-7-7-7-7---2-2-2-2-2-2-2-2---6-6-6-6-6-6-6-6---4-4-4-4-4-4-4-4--|
E|--------------------------------------4-4-4-4-4-4-4-4---2-2-2-2-2-2-2-2--|

e|-------------------------------------------------------------------------|
B|-------------------------------------------------------------------------|
G|--9-9-9-9-9-9-9-9---4-4-4-4-4-4-4-4--------------------------------------|
D|--9-9-9-9-9-9-9-9---4-4-4-4-4-4-4-4---6-6-6-6-6-6-6-6---4-4-4-4-4-4-4-4--|
A|--7-7-7-7-7-7-7-7---2-2-2-2-2-2-2-2---6-6-6-6-6-6-6-6---4-4-4-4-4-4-4-4--|
E|--------------------------------------4-4-4-4-4-4-4-4---2-2-2-2-2-2-2-2--|

VERSE
(0:19)(1:06)
e|-----------------------------------------------------|
B|-----------------------------------------------------|
G|-----------------------------------------------------|
D|--9-9-9--9-9-9--9-9-9--9-9-9--9-9-9--9-9-9--9-9-9\4--|
A|--9-9-9--9-9-9--9-9-9--9-9-9--9-9-9--9-9-9--9-9-9\4--|
E|--7-7-7--7-7-7--7-7-7--7-7-7--7-7-7--7-7-7--7-7-7\2--|
   |---|  |---|  |---|  |---|  |---|  |---|  |---|      P.M.

(0:24)(1:11)
e|-----------------------------------------------------|
B|-----------------------------------------------------|
G|-----------------------------------------------------|
D|--9-9-9--9-9-9--9-9-9--9-9-9--9-9-9--9-9-9--9-9-9\4--|
A|--9-9-9--9-9-9--9-9-9--9-9-9--9-9-9--9-9-9--9-9-9\4--|
E|--7-7-7--7-7-7--7-7-7--7-7-7--7-7-7--7-7-7--7-7-7\2--|
   |---|  |---|  |---|  |---|  |---|  |---|  |---|      P.M.

(0:29)(1:15)
e|-----------------------------------------------------|
B|-----------------------------------------------------|
G|-----------------------------------------------------|
D|--9-9-9--9-9-9--9-9-9--9-9-9--9-9-9--9-9-9--9-9-9\4--|
A|--9-9-9--9-9-9--9-9-9--9-9-9--9-9-9--9-9-9--9-9-9\4--|
E|--7-7-7--7-7-7--7-7-7--7-7-7--7-7-7--7-7-7--7-7-7\2--|
   |---|  |---|  |---|  |---|  |---|  |---|  |---|      P.M.
     You   don’t   know   a   thing   about   me
     Trust  is  something  that  comes  easy

(0:34)(1:20)
e|-----------------------------------------------------|
B|-----------------------------------------------------|
G|-----------------------------------------------------|
D|--9-9-9--9-9-9--9-9-9--9-9-9--9-9-9--9-9-9--9-9-9\4--|
A|--9-9-9--9-9-9--9-9-9--9-9-9--9-9-9--9-9-9--9-9-9\4--|
E|--7-7-7--7-7-7--7-7-7--7-7-7--7-7-7--7-7-7--7-7-7\2--|
   |---|  |---|  |---|  |---|  |---|  |---|  |---|      P.M.
      Is  there  something  you  should  know?
      When  you’ve  never  been  a  victim

(0:38)(1:24)
e|-----------------------------------------------------|
B|-----------------------------------------------------|
G|-----------------------------------------------------|
D|--9-9-9--9-9-9--9-9-9--9-9-9--9-9-9--9-9-9--9-9-9\4--|
A|--9-9-9--9-9-9--9-9-9--9-9-9--9-9-9--9-9-9--9-9-9\4--|
E|--7-7-7--7-7-7--7-7-7--7-7-7--7-7-7--7-7-7--7-7-7\2--|
   |---|  |---|  |---|  |---|  |---|  |---|  |---|      P.M.
      I  can  tell  you  what  you  want to hear
      Lies  and  promises  and  words  are  said


(0:42)(1:29)
e|-----------------------------------------------------------|
B|-----------------------------------------------------------|
G|------------------------------11-11-11-11-11-11-11-11-11---|
D|--9--9--9--9--9--9--9--9--9---11-11-11-11-11-11-11-11-11---|
A|--9--9--9--9--9--9--9--9--9----9--9--9--9--9--9--9--9--9---|
E|--7--7--7--7--7--7--7--7--7--------------------------------|
   Let your inhibitions just go                         Go!
   It’s you’re decision to accept them


CHORUS
(0:47)(1:34)(2:25)
e|-----------------------------------------------------------------------|
B|-----------------------------------------------------------------------|
G|-------------------4-4-4-4-4-4-4-4-------------------------------------|
D|--2-2-2-2-2-2-2-2--4-4-4-4-4-4-4-4--6-6-6-6-6-6-6-6--4-4-4-4-4-4-4-4---|
A|--2-2-2-2-2-2-2-2--2-2-2-2-2-2-2-2--6-6-6-6-6-6-6-6--4-4-4-4-4-4-4-4---|
E|--0-0-0-0-0-0-0-0-------------------4-4-4-4-4-4-4-4--2-2-2-2-2-2-2-2---|
    Nooooooooooooooooooooooooooooo,   you don’t know what you will give up

(0:52)(1:38)(2:29)
e|-----------------------------------------------------------------------|
B|-----------------------------------------------------------------------|
G|-------------------4-4-4-4-4-4-4-4-------------------------------------|
D|--2-2-2-2-2-2-2-2--4-4-4-4-4-4-4-4--6-6-6-6-6-6-6-6--4-4-4-4-4-4-4-4---|
A|--2-2-2-2-2-2-2-2--2-2-2-2-2-2-2-2--6-6-6-6-6-6-6-6--4-4-4-4-4-4-4-4---|
E|--0-0-0-0-0-0-0-0-------------------4-4-4-4-4-4-4-4--2-2-2-2-2-2-2-2---|
    Nooooooooooooooooooooooooooooo,   you don’t know what you will give up

(0:57)(1:43)(2:34)
e|-----------------------------------------------------------------------|
B|-----------------------------------------------------------------------|
G|-------------------4-4-4-4-4-4-4-4-------------------------------------|
D|--2-2-2-2-2-2-2-2--4-4-4-4-4-4-4-4--6-6-6-6-6-6-6-6--4-4-4-4-4-4-4-4---|
A|--2-2-2-2-2-2-2-2--2-2-2-2-2-2-2-2--6-6-6-6-6-6-6-6--4-4-4-4-4-4-4-4---|
E|--0-0-0-0-0-0-0-0-------------------4-4-4-4-4-4-4-4--2-2-2-2-2-2-2-2---|
    Nooooooooooooooooooooooooooooo,   it may take you years to find out

(1:02)(1:48)(2:39)
e|-----------------------------------------------------------------------|
B|-----------------------------------------------------------------------|
G|-------------------4-4-4-4-4-4-4-4-------------------------------------|
D|--2-2-2-2-2-2-2-2--4-4-4-4-4-4-4-4--6-6-6-6-6-6-6-6--4-4-4-4-4-4-4-4---|
A|--2-2-2-2-2-2-2-2--2-2-2-2-2-2-2-2--6-6-6-6-6-6-6-6--4-4-4-4-4-4-4-4---|
E|--0-0-0-0-0-0-0-0-------------------4-4-4-4-4-4-4-4--2-2-2-2-2-2-2-2---|
    Nooooooooooooooooooooooooooooo,   it’s something that may never come to you


VERSE


INTERLUDE
(1:52)
e|---------------------------------------------------------------------------|
B|---------------------------------------------------------------------------|
G|------4--------------------------------------------------------------------|
D|--2---4---6---4-------------NO GUITAR--------------------------------------|
A|--2---2---6---4------------------------------------------------------------|
E|--0-------4---2------------------------------------------------------------|


SOLO
(2:06)
e|---------------------------------------------------------------------|
B|-5-5-5-5-5-5-5-5--4-4-4-4-4-4-4-4--7-7-7-7-7-7-7-7--5-5-5-5-4-4-4-4--|
G|-4-4-4-4-4-4-4-4--4-4-4-4-4-4-4-4--4-4-4-4-4-4-4-4--4-4-4-4-4-4-4-4--|
D|---------------------------------------------------------------------|
A|---------------------------------------------------------------------|
E|---------------------------------------------------------------------|

(2:11)
e|---------------------------------------------------------------------|
B|-5-5-5-5-5-5-5-5--4-4-4-4-4-4-4-4--7-7-7-7-7-7-7-7--5-5-5-5-4-4-4-4--|
G|-4-4-4-4-4-4-4-4--4-4-4-4-4-4-4-4--4-4-4-4-4-4-4-4--4-4-4-4-4-4-4-4--|
D|---------------------------------------------------------------------|
A|---------------------------------------------------------------------|
E|---------------------------------------------------------------------|

 (2:16)(4x)
e|-----------|
B|--7--5--4--|
G|--4--4--4--|
D|-----------|
A|-----------|
E|-----------|

(2:16)(11x) FAST
e|-----------|
B|--7--5--4--|
G|--4--4--4--|
D|-----------|
A|-----------|
E|-----------|


REPEAT CHORUS AND INTRO

END ON
e|-----|
B|-----|
G|-----|
D|--2--|
A|--2--|
E|--0--|
            
Submit corrections

comments powered by Disqus
↑ Back to top | Face To Face Tabs for Disconnected. Lyrics for acoustic guitar and electric guitar. 1 Tablatures and chords are parodies/interpretations of the original songs. You may use it for private study, scholarship, research or language learning purposes only