» » »

Faber Drive, Killin Me Tabs (ver.2)

Artists:  A B C D E F G H I J K L M N O P Q R S T U V W X Y Z # 

Killin Me Tabs (ver.2)

Faber Drive Tabs
 Rating:
4/5 (4 votes)
Killin Me lessons Tabs too difficult? Try these video lessons and learn fast
                Band: Faber Drive

Note: This is just the rhythm guitar part NOT the lead guitar. Also, I did not make this 
I simply moved it from the band "Faber" to the band "Faber Drive" because the author of 
tab decided not to.

Intro (Palm-muted)
E|-------------------------|
B|-------------------------|
G|---8---8---8-------6-----|
D|-8-8-8-8-8-8-4-----6-6---| x2
A|-8-6-8-8-8-8-4-----4-6---|
E|-6-6-6-6-6-6-2-------4---|

She takes me to the edge...
E|--------------------------|
B|--------------------------|
G|-3-3-3-3-6-6--------------|
D|-3-3-3-3-6-6-6-6----------| x2
A|-1-1-1-1-4-4-6-6----------|
E|-------------4-4----------|


creating lies...
E|-------------------------|
B|-------------------------|
G|-------------------------|
D|-4-4-4-4-4-6-6-6-6-------|
A|-4-4-4-4-4-6-6-6-6-------|
E|-2-2-2-2-2-4-4-4-4-------|

Chorus
E|---------------------------------------|
B|---------------------------------------|
G|-3-3-3-3-------3-3-3-3-------6-6-------|
D|-3-3-3-3-4-4-4-3-3-3-3-4-4-4-6-6-6-6---|
A|-1-1-1-1-4-4-4-1-1-1-1-4-4-4-4-4-6-6---|
E|---------2-2-2---------2-2-2-----4-4---|

E|--------------------------|
B|--------------------------|
G|-3-3-3-3-6-6--------------|
D|-3-3-3-3-6-6-6-6----------| x4
A|-1-1-1-1-4-4-6-6----------|
E|-------------4-4----------|

E|-------------------------|
B|-------------------------|
G|-------------------------|
D|-4-4-4-4-4-6-6-6-6-------|
A|-4-4-4-4-4-6-6-6-6-------|
E|-2-2-2-2-2-4-4-4-4-------|


Chorus
E|-----------------------------|
B|-----------------------------|
G|-3-3-3-3-------3-3-3-3-------|
D|-3-3-3-3-4-4-4-3-3-3-3-4-4-4-| x2
A|-1-1-1-1-4-4-4-1-1-1-1-4-4-4-|
E|---------2-2-2---------2-2-2-|

E|-----------------------------|
B|-----------------------------|
G|-6-6-------------------------|
D|-6-6-6-6---------------------|
A|-4-4-6-6---------------------|
E|-----4-4---------------------|

Solo (Palm-muted)
E|-------------------------|
B|-------------------------|
G|-------------------------|
D|-4-4-4-4-4-6-6-6-6-------|
A|-4-4-4-4-4-6-6-6-6-------|
E|-2-2-2-2-2-4-4-4-4-------|

E|-----------------------------|
B|-----------------------------|
G|-3-3-3-3-------3-3-3-3-------|
D|-3-3-3-3-4-4-4-3-3-3-3-4-4-4-|
A|-1-1-1-1-4-4-4-1-1-1-1-4-4-4-|
E|---------2-2-2---------2-2-2-|

E|-----------------------------|
B|-----------------------------|
G|-----------------------------|
D|-6-6-6-6-6-3-3-3-4-4-4-------|
A|-6-6-6-6-6-3-3-3-4-4-4-------|
E|-4-4-4-4-4-1-1-1-2-2-2-------|

E|-----------------------------|
B|-----------------------------|
G|-3---6-----------------------|
D|-3---6---6-------------------| x2
A|-1---4---6-------------------|
E|---------4-------------------|

E|--------------------------|
B|--------------------------|
G|-3-3-3-3-6-6--------------|
D|-3-3-3-3-6-6-6-6----------| x2
A|-1-1-1-1-4-4-6-6----------|
E|-------------4-4----------|

Chorus
E|-----------------------------|
B|-----------------------------|
G|-3-------------3-3-3-3-------|
D|-3-------4-4-4-3-3-3-3-4-4-4-|
A|-1-------4-4-4-1-1-1-1-4-4-4-|
E|---------2-2-2---------2-2-2-|

E|-----------------------------|
B|-----------------------------|
G|-3-3-3-3-------3-3-3-3-------|
D|-3-3-3-3-4-4-4-3-3-3-3-4-4-4-| x2
A|-1-1-1-1-4-4-4-1-1-1-1-4-4-4-|
E|---------2-2-2---------2-2-2-|

E|-----------------------------|
B|-----------------------------|
G|-6-6-------------------------|
D|-6-6-6-6---------------------|
A|-4-4-6-6---------------------|
E|-----4-4---------------------|

E|-----------------------------|
B|-----------------------------|
G|-3-3-3-3-------3-3-3-3-------|
D|-3-3-3-3-4-4-4-3-3-3-3-4-4-4-|
A|-1-1-1-1-4-4-4-1-1-1-1-4-4-4-|
E|---------2-2-2---------2-2-2-|


Outro
E|----------------------------------|
B|-------------------------------3--|
G|-------------------------------3--|
D|-6-6-6-4-4-4-6-6-6-3-3-4-4-6-6-3--|
A|-6-6-6-4-4-4-6-6-6-3-3-4-4-6-6-1--|
E|-4-4-4-2-2-2-4-4-4-1-1-2-2-4-4----|
            
Submit corrections

comments powered by Disqus
↑ Back to top | Faber Drive Tabs for Killin Me. Lyrics for acoustic guitar and electric guitar. Tablatures and chords are parodies/interpretations of the original songs. You may use it for private study, scholarship, research or language learning purposes only