» » »

Faber Drive, By Your Side Chords (ver.1)

Artists:  A B C D E F G H I J K L M N O P Q R S T U V W X Y Z # 

By Your Side Chords (ver.1)

Faber Drive Tabs
 Rating:
3.4/5 (5 votes)
By Your Side lessons Tabs too difficult? Try these video lessons and learn fast
                Faber Drive
"By Your Side"
Standard Tuning

!!!!!!!!Capo on the 4th Fret!!!!!!!!


------------------------------------------------------------------

SORRY IF THIS IS DIFFICULT TO UNDERSTAND, IT'S DIFFICULT TO TAB
OUT HOW I PLAY THIS SONG, BUT THIS IS THE CLOSEST I COULD COME
TO SHOWING YOU, WITHOUT ACTUALLY SHOWING YOU.

------------------------------------------------------------------

NOTE: The bass/root note for the Verse is what I will base the
"chord" off of for the lyrics, except the last part where it
goes up on the G-string(haha) from 2 to 4 to 6, I will base it off
the highest note and it will have a "^" to indicate it's not the
root note.

Intro

e|----------------------------------------------------------------|
B|--------7---------------5---------------3---------------2-------|
G|----------------------------------------------------------------|
D|--0---0---0---0---0---0---0---0---0---0---0---0---0---0---0---0-|
A|5---5-------5---4---4-------4---2---2-------2---0---0-------0---|
E|----------------------------------------------------------------|
  D               C#              B               A

continued..

e|----------------------------------------------------------------|
B|----------------------------------------------------------------|
G|--------2---------------2---------------2-------4-------6-------|
D|--0---0---0---0---0---0---0---0---0---0---0---0---0---0---0---0-|
A|--------------------------------0---0-------0-------0-------0---|
E|3---3-------3---3---3-------3-----------------------------------|
  G                                       A^      B^      C#^

------------------------------------------------------

VERSE 1

------------------------------------------------------

D(before singing starts; goes into the singing)

                    C#                 B
I'll turn off the lights and let you sleep

                 A                G
Just close your eyes relax and breathe,

               A     A^   B^  C#^      D
In slowly, no, don't feel lonely 'Cause

               C#
I'll be right here, by your side

                A              G
If you should awake into the night,


Keep dreaming 'Cause

A    A^ B^   C#^
I'll be keepin' your

------------------------------------------------------

CHORUS 1

------------------------------------------------------

D   A    B
Heart in mine,

               G
Don't you know I'll always be near

D      A                 G
Even in the hardest time,

                         A
Don't you know I'm always right here

D            A
When you're feeling lost

B            G
Don't give up because,

     Em7
It's alright,

    D/F# G
When you close your eyes,

A            D
I'm by your side

------------------------------------------------------

VERSE 2

------------------------------------------------------

D            C#                 B
Remember the days when we would drive,

         A                    G
Into the night we'd watch the skies, of summer,

   A
So full, of colour and,

D            C#                    B
Remember the days when waves would roll,

          A                  G
Up on the beach to touch our toes,


On soft sand,

   A
My hand, in yours and your

------------------------------------------------------

CHORUS 2

------------------------------------------------------

D  A    B
Heart in mine,

               G
Don't you know I'll always be near

D      A                 G
Even in the hardest time,

                         A
Don't you know I'm always right here

D            A
When you're feeling lost

B            G
Don't give up because,

     Em7
It's alright,

    D/F# G
When you close your eyes,

A
I'm by your side

------------------------------------------------------

BRIDGE A

------------------------------------------------------

G                    D
Laying flat on our backs

          A
We stared up at the sky

G                    D
We were laughing so hard,

         A
We had tears in our eyes

Em7  D/F#       G
Our future's before us

B             Cadd9
Our worries behind,

             A
Just you and I

------------------------------------------------------

BRIDGE B(intro/verse riff)

------------------------------------------------------
[play D portion of Intro twice then just play intro riff]


D                 C#                 B
I'll turn off the lights and let you sleep,

                A               G(just play G note; let ring)
Just close your eyes, relax and dream,

A(strum)
and keep your

------------------------------------------------------

CHORUS 3

------------------------------------------------------


D  A     B      G  A
Heart in mine,

D      A                 G(let chord ring)
Even in the hardest times,

[little drum solo thing]

A ; then

D            A
When you're feeling lost

B            G
Don't give up because,

     Em7
It's alright,

D/F#  G      A
It's alright,

B            A
When you're feeling lost

G            A
Don't give up because,

     Em7
It's alright,

D/F#     G          A
When you close your eyes

            *(start OUTRO)
I'm by your side

**          ***
I'm by your side

** = [these lyrics are STARTED during the A note "section" of the OUTRO]

*** = [the long "side" lyric is started at the G note "section"]


------------------------------------------------------

OUTRO

------------------------------------------------------

e|----------------------------------------------------------------|
B|--------7---------------5---------------3---------------2-------|
G|----------------------------------------------------------------|
D|--0---0---0---0---0---0---0---0---0---0---0---0---0---0---0---0-|
A|5---5-------5---4---4-------4---2---2-------2---0---0-------0---|
E|----------------------------------------------------------------|
  D               C#              B               A

continued..

e|--------------------------------|
B|--------------------------------|
G|--------2-------4-------6-------|
D|--0---0---0---0---0---0---0---0-|
A|------------0-------0-------0---|
E|3---3---------------------------|
  G       A^      B^      C#^


END BY STRUMMING:

E|-
B|3
G|2
D|0
A|-
E|-

(couldn't find the name of this chord, haha)
            
Submit corrections

comments powered by Disqus
↑ Back to top | Faber Drive Chords for By Your Side. Lyrics for acoustic guitar and electric guitar. Tablatures and chords are parodies/interpretations of the original songs. You may use it for private study, scholarship, research or language learning purposes only