» » »

Suzie Wants Her All Day What Tabs (ver.1)

Artists:  A B C D E F G H I J K L M N O P Q R S T U V W X Y Z # 

Suzie Wants Her All Day What Tabs (ver.1)

Extreme
Rating:
0/5 (0 votes)

Hard to play? Try these video lessons and learn fast.
                Intro and Verse
(Completly by ear)


Intro:

Eb|-------------------------------|
Bb|-------------------------------|
Gb|-------------------------------|
Db|--x-x-x--x--x-x----------------|     x4
Ab|--x-x-x--x--x-x----------------|
Eb|--x-x-x--x--x-x----------------|

Eb|----------------------------------------------------------|
Bb|----------------------------------------------------------|
Gb|-----------------------------------------2-5-2------------|
Db|-------------------2-3-2-----------------------3--2-------|
Ab|--3--4--5-5--0-3-5-------5--3-5-5--0-3-5------------------|
Eb|----------------------------------------------------------|
                                                              x2
Eb|----------------------------------------------------------|
Bb|----------------------------------------------------------|
Gb|----------------------------------------------------------|
Db|-------------2-3-2--------------------------5-4-5---------|
Ab|--5-5--0-3-5-------5--3-0-------3-3-5---------------------|
Eb|---------------------------1-1---------3-3----------------|


Pre-Verse: (Most Likely Incorrect)

Eb|--------------9-----7----5----3----2----------------------|
Bb|----------------10----8----6----4-------------------------|
Gb|-----------9-------9----7----5----3-----------------------|
Db|---7-----7------------------------------------------------|
Ab|----------------------------------------------------------|
Eb|----------------------------------------------------------|

Verse:

Eb|------------------------------------------------------------------------|
Bb|------------------------------------------------------------------------|
Gb|------------------------------------------------------------------------|
Db|-----------------------------3------------------------------------------|
Ab|--5-5--0-3-4-5----5-5--0-3-5-----5-5--0-3-4-5--5-3-0----3-3-5---5-4-5---|
Eb|-----------------------------------------------------1-1-----3-3--------|

Eb|------------------------------------------------------------------------|
Bb|------------------------------------------------------------------------|
Gb|------------------------------------------------------------------------|
Db|--------------------------3---------------------------------------------|
Ab|-5-5--0-3-4-5----5--0-3-0--5-3-5-5-5--0-3-4-5--5-3-0----3-3-5---5-4-5--2|
Eb|-----------------------------------------------------1-1-----3-3--------|
            
Hard to play? Try these video lessons and learn fast. | Correct




comments powered by Disqus
↑ Back to top | Tablatures and chords are parodies/interpretations of the original songs. You may use it for private study, scholarship, research or language learning purposes only