>
 >
Mutha Dont Wanna Go To School Today

Mutha Dont Wanna Go To School Today Guitar Tabs

Extreme - Mutha Dont Wanna Go To School Today chords, tabs, tablatures, lyrics

Guitar lessons | Add/correct | Request | Top 50 tabs Artists:  A B C D E F G H I J K L M N O P Q R S T U V W X Y Z 0-9

Mutha Dont Wanna Go To School Today Guitar Tabs – Extreme

CD, Sheet music, Poster

Do you like Mutha Dont Wanna Go To School Today? Share with your friends now
Tabs

MUTHA (DON'T WANNA GO TO SCHOOL TODAY)
As recorded by Extreme
(From the 1989 Album EXTREME)

	

Words by Nuno Bettencourt Music by Gary Cherone

B5
x 2 4 4 x x
	
C5
x 3 5 5 x x
	
A/C#
x 4 7 x x x
	
D5
x 5 7 7 x x

A5
x 0 2 2 x x
	
G5
5 x 0 0 x x
	
G5(type 2)
x x 5 7 x x
	
E5
x 7 9 9 x x

Gtr I (Db Ab Db Gb Bb Eb) - 'Untitled'
Gtr II (Db Ab Db Gb Bb Eb) - 'Untitled'
Gtr III (Db Ab Db Gb Bb Eb) - 'Nuno Solo'

 Clean Solo
  Moderate Rock Q=132
 4/4
  Gtr I
   T      T      T      T      T      T      T      T
   |----6-----|  |----6-----|  |----6-----|  |----6-----|
   S S S  S S S  S S S  S S S  S S S  S S S  S S S  S S S
|---------------------------------------------------------|
|---------------------------------------------------------|
|-10p5h9--------10p5h9--------10p5h9--------10p5h9--------|
|--------10p5h7--------10p5h7--------10p5h7--------10p5h7-|
|---------------------------------------------------------|
|---------------------------------------------------------|


   T      T      T      T      T      T      T      T
   |----6-----|  |----6-----|  |----6-----|  |----6-----|
   S S S  S S S  S S S  S S S  S S S  S S S  S S S  S S S
|---------------------------------------------------------|
|---------------------------------------------------------|
|-10p5h9--------10p5h9--------10p5h9--------10p5h9--------|
|--------10p5h7--------10p5h7--------10p5h7--------10p5h7-|
|---------------------------------------------------------|
|---------------------------------------------------------|


   T      T      T      T      T      T      T      T
   |----6-----|  |----6-----|  |----6-----|  |----6-----|
   S S S  S S S  S S S  S S S  S S S  S S S  S S S  S S S
|---------------------------------------------------------|
|---------------------------------------------------------|
|-10p5h9--------10p5h9--------10p5h9--------10p5h9--------|
|--------10p5h7--------10p5h7--------10p5h7--------10p5h7-|
|---------------------------------------------------------|
|---------------------------------------------------------|


   T      T      T      T      T      T      T      T
   |----6-----|  |----6-----|  |----6-----|  |----6-----|
   S S S  S S S  S S S  S S S  S S S  S S S  S S S  S S S
|----------------------------------------------------------|
|----------------------------------------------------------|
|-10p5h9--------10p5h9--------10p5h9--------10p5h9---------|
|--------10p5h7--------10p5h7--------10p5h7--------10p3h5--|
|----------------------------------------------------------|
|----------------------------------------------------------|


   T      T     T      T      T      T     T      T
   |----6-----| |----6-----|  |----6-----| |----6-----|
   S S S  S S S S S S  S S S  S S S  S S S S S S  S S S
|-------------------------------------------------------|
|-------------------------------------------------------|
|-10p3h7--------9p3h7--------10p3h7--------9p3h7--------|
|--------10p3h5-------10p3h5--------10p3h5-------10p3h5-|
|-------------------------------------------------------|
|-------------------------------------------------------|


   T      T      T      T      T      T     T      T
   |----6-----|  |----6-----|  |----6-----| |----6-----|
   S S S  S S S  S S S  S S S  S S S  S S S S S S  S S S
|---------------------------------------------------------|
|---------------------------------------------------------|
|-10p3h7--------13p3h7--------10p3h7--------9p3h7---------|
|--------10p3h5--------10p3h5--------10p3h5-------10p3h5--|
|---------------------------------------------------------|
|---------------------------------------------------------|


   T      T      T      T      T      T      T      T
   |----6-----|  |----6-----|  |----6-----|  |----6-----|
   S S S  S S S  S S S  S S S  S S S  S S S  S S S  S S S
|---------------------------------------------------------|
|---------------------------------------------------------|
|-10p5h9--------10p5h9--------10p5h9--------10p5h9--------|
|--------10p5h7--------10p5h7--------10p5h7--------10p5h7-|
|---------------------------------------------------------|
|---------------------------------------------------------|


   T      T      T      T      T      T      T      T
   |----6-----|  |----6-----|  |----6-----|  |----6-----|
   S S S  S S S  S S S  S S S  S S S  S S S  S S S  S S S
|----------------------------------------------------------|
|----------------------------------------------------------|
|-10p5h9--------12p5h9--------10p5h9--------10p5h9---------|
|--------10p5h7--------10p5h7--------10p5h7--------10p3h5--|
|----------------------------------------------------------|
|----------------------------------------------------------|


   T      T     T      T      T      T      T      T
   |----6-----| |----6-----|  |----6-----|  |----6-----|
   S S S  S S S S S S  S S S  S S S  S S S  S S S  S S S
|--------------------------------------------------------|
|----------------------------10p3----------11p3----------|
|-10p3h7--------9p3h7-------------7-------------7--------|
|--------10p3h5-------10p3h5--------10p3h5--------10p3h5-|
|--------------------------------------------------------|
|--------------------------------------------------------|


   T      T      T      T      T      T     T      T
   |----6-----|  |----6-----|  |----6-----| |-----6------|
   S S S  S S S  S S S  S S S  S S S  S S S S S S  T T S S
|-------------------------------------------------------------|
|-------------------------------------------------------------|
|-10p3h7--------12p3h7--------10p3h7--------9p3h7-------------|
|--------10p3h5--------10p3h5--------10p3h5-------10p7p3h5----|
|-------------------------------------------------------------|
|-------------------------------------------------------------|


  T     T     T     T     T     T     T     T
  |----6----| |----6----| |----6----| |----6----|
  S S S S S S S S S S S S S S S S S S S S S S S S
|-------------------------------------------------|
|-------------------------------------------------|
|-7p2h5-------7p2h5-------7p2h5-------7p2h5-------|
|-------7p3h5-------7p3h5-------7p3h5-------7p3h5-|
|-------------------------------------------------|
|-------------------------------------------------|


  T     T     T     T     T     T     T      T
  |----6----| |----6----| |----6----| |----6-----|
  S S S S S S S S S S S S S S S S S S S S S  S S S
|---------------------------------------------------|
|---------------------------------------------------|
|-9p4h7-------9p4h7-------9p4h7-------9p4h7------7--|
|-------9p5h7-------9p5h7-------9p5h7-------10p9----|
|---------------------------------------------------|
|---------------------------------------------------|


   T      T      T      T      T      T      T      T
   |----6-----|  |----6-----|  |----6-----|  |----6-----|
   S S S  S S S  S S S  S S S  S S S  S S S  S S S  S S S
|---------------------------------------------------------|
|---------------------------------------------------------|
|-10p5h9------9-10p5h9------9-10p5h9------9-10p5h9------7-|
|--------10p7----------10p7----------10p7----------10p5---|
|---------------------------------------------------------|
|---------------------------------------------------------|


   T      T      T      T      T      T      T     T
   |----6-----|  |----6-----|  |----6-----|  |----6----|
   S S S  S S S  S S S  S S S  S S S  S S S  S S S S S S
|---------------------------------------------------------|
|---------------------------------------------------------|
|-10p4h7------7-10p4h7------7-10p4h7------7-10p4h7-----7--|
|--------10p5----------10p5----------10p5----------9p6----|
|---------------------------------------------------------|
|---------------------------------------------------------|


  T     T     T     T     T     T     T     T
  |----6----| |----6----| |----6----| |----6----|
  S S S S S S S S S S S S S S S S S S S S S S S S
|-------------------------------------------------|
|-------------------------------------------------|
|-9p4h7-----7-9p4h7-----7-9p4h7-----7-9p4h7-----7-|
|-------9p6---------9p6---------9p6---------9p6---|
|-------------------------------------------------|
|-------------------------------------------------|


  T     T     T     T     T     T     T     T
  |----6----| |----6----| |----6----| |----6----|
  S S S S S S S S S S S S S S S S S S S S S S S S
|--------------------------------------------------|
|--------------------------------------------------|
|-9p4h7-----7-9p4h7-----7-9p4h7-----7-9p4h7-----7--|
|-------9p6---------9p6---------9p6---------9p6----|
|--------------------------------------------------|
|--------------------------------------------------|


                            Dist Solo
 2/4                        4/4
                          Gtr II
                                   \2.5____
  T     T     T     T
  |----6----| |----6----|
  S S S S S S S S S S S S     Q   +H.
|-------------------------||--------------|
|-------------------------||-[0]--(0)-----|
|-9p4h7-----7-9p4h7-----7-||--------------|
|-------9p6---------9p6---||--------------|
|-------------------------||--------------|
|-------------------------||--------------|


 5/4
         /    \2__________________________________
                          |---------7----------|
  +H    +Q   +Q    a a a  S  T  T  S  S  S  S  S
|------------------------------------12----------|
|-(0)---(0)--(0)---------13-12-12-13----13p12h13-|
|----------------------x-------------------------|
|--------------------x---------------------------|
|------------------x-----------------------------|
|------------------------------------------------|


  Slightly Faster Q=138
 4/4
   |------6-------|  |------6-------|  |------6-------|  |------6-------|
   S  S  S  S  S  S  S  S  S  S  S  S  S  S  S  S  S  S  S  S  S  S  S  S
|-12-15p12----------12-15p12----------12-15p12----------12-15p12----------|
|----------13-12h13----------13-12h13----------13-12h13----------15-13h15-|
|-------------------------------------------------------------------------|
|-------------------------------------------------------------------------|
|-------------------------------------------------------------------------|
|-------------------------------------------------------------------------|


   |------6-------|  |------6-------|  |------6-------|  |------6-------|
   S  S  S  S  S  S  S  S  S  S  S  S  S  S  S  S  S  S  S  S  S  S  S  S
|-13-17p13----------13-17p13----------13-17p13----------13h17p13p12-------|
|----------15-13h15----------15-13h15----------15-13h15-------------15h17-|
|-------------------------------------------------------------------------|
|-------------------------------------------------------------------------|
|-------------------------------------------------------------------------|
|-------------------------------------------------------------------------|


   |------6-------|  |------6-------|  |------6-------|  |------6-------|
   S  S  S  S  S  S  S  S  S  S  S  S  S  S  S  S  S  S  S  S  S  S  S  S
|-15-19p15----------15-19p15----------15-19p15----------15-19p15----------|
|----------17-15h17----------17-15h17----------18-17h18----------18-17h18-|
|-------------------------------------------------------------------------|
|-------------------------------------------------------------------------|
|-------------------------------------------------------------------------|
|-------------------------------------------------------------------------|


   |------6-------|  |------6-------|  |------6-------|  |------6-------|
   S  S  S  S  S  S  S  S  S  S  S  S  S  S  S  S  S  S  S  S  S  S  S  S
|-17-20p17----------17-20p17----------17-20p17----------17-20p17-----------|
|----------18-17h18----------18-17h18----------18-17h18----------17-15h17--|
|--------------------------------------------------------------------------|
|--------------------------------------------------------------------------|
|--------------------------------------------------------------------------|
|--------------------------------------------------------------------------|


   |------6-------|  |------6-------|  |------6-------|  |------6-------|
   S  S  S  S  S  S  S  S  S  S  S  S  S  S  S  S  S  S  S  S  S  S  S  S
|-15-20p15----------15-20p15----------15-20p15----------15-20p15----------|
|----------17-15h17----------17-15h17----------17-15h17----------16-13h15-|
|-------------------------------------------------------------------------|
|-------------------------------------------------------------------------|
|-------------------------------------------------------------------------|
|-------------------------------------------------------------------------|


   |------6-------|  |------6-------|  |------6-------|
   S  S  S  S  S  S  S  S  S  S  S  S  S  S  S  S  S  S  S  S  S  S
|-13-18p13----------13-18p13----------13-18p13----------13-18p13p12-|
|----------15-13h15----------15-13h15----------15-13h15-------------|
|-------------------------------------------------------------------|
|-------------------------------------------------------------------|
|-------------------------------------------------------------------|
|-------------------------------------------------------------------|


   |------6-------|  |-----5-----|  |------6-------|  |------6-------|
   S  S  S  S  S  S  S  S  S  S  S  S  S  S  S  S  S  S  S  S  S  S  S
|-15p13p12----------------------------------------------------12-13-15-|
|----------15p13p12----------------------------------12h13h15----------|
|-------------------14-12p10----------------10h12h14-------------------|
|----------------------------14p12-10h12-14----------------------------|
|----------------------------------------------------------------------|
|----------------------------------------------------------------------|


   ~~~~~~
   H.        E    S  S
|-15b17======x\--------|
|------------x\-----13-|
|------------x\--14----|
|----------------------|
|----------------------|
|----------------------|


   |------6-------|  |------6------|  |------6-------|  |------6------|
   S  S  S  S  S  S  S  S  S S  S  S  S  S  S  S  S  S  S  S  S S  S  S
|-12-17p12----------12-17p12p0-------12-16p12----------12-16p12---------|
|----------13----13---------------12----------12----12----------0----11-|
|-------------14---------------13----------------13---------------12----|
|-----------------------------------------------------------------------|
|-----------------------------------------------------------------------|
|-----------------------------------------------------------------------|


   |------6-------|  |------6-------|  |------6-------|  |-------6--------|
   S  S  S  S  S  S  S  S  S  S  S  S  S  S  S  S  S  S  S  S  T T  S  S  S
|-10-15p10----------10-15p10----------10-14p10----------10-14p10-0-------10-|
|----------11----11----------10----10----------10----10---------------------|
|-------------12----------------11----------------11---------------10-13----|
|---------------------------------------------------------------------------|
|---------------------------------------------------------------------------|
|---------------------------------------------------------------------------|


      |-3--|     |-3-|    |-3-| |3| |-3-|
   E  S  S S  E  S S S E  S S S S E S S S
|-13\------7-10\-----4-7\-----1-4s5-----4-|
|-----------------------------------------|
|-----7-10-------4-7------1-4-------4-7---|
|-----------------------------------------|
|-----------------------------------------|
|-----------------------------------------|


     |-3--|      |--3--|      |--3--|
  E  S  S S  E   S  S  S  E   S  S  S  E  E
|-7/------7-10/-------10-13/-------13-16s22-|
|-------------------------------------------|
|----7-10-------10-13--------13-16----------|
|-------------------------------------------|
|-------------------------------------------|
|-------------------------------------------|


   |---3---|   |---3---|
   Q   Q   Q   Q   Q   Q
|-16--12------12----------|
|---------13------13--12--|
|-------------------------|
|-------------------------|
|-------------------------|
|-------------------------|


   T     T          T     T         T     T          T     T
   |------6------|  |-----6------|  |------6------|  |------6------|
   S  S  S  S S  S  S  S  S  S S S  S  S  S  S S  S  S  S  S  S S  S
|-20p12-20p12p8h12-20p12-20p12p8p7-17p12-17p12p8h12-17p12-17p12p7h10-|
|--------------------------------------------------------------------|
|--------------------------------------------------------------------|
|--------------------------------------------------------------------|
|--------------------------------------------------------------------|
|--------------------------------------------------------------------|


   T     T          T     T          T     T          T     T
   |------6------|  |------6------|  |------6------|  |-----6------|
   S  S  S  S S  S  S  S  S  S S  S  S  S  S  S S  S  S  S  S  S S S
|-17p10-17p10p7h10-17p10-17p10p7h10-15p10-15p10p7h10-15p10-15p10p6h9-|
|--------------------------------------------------------------------|
|--------------------------------------------------------------------|
|--------------------------------------------------------------------|
|--------------------------------------------------------------------|
|--------------------------------------------------------------------|


   T    T        T    T        T    T        T    T
   |----6-----|  |----6-----|  |----6-----|  |----6-----|
   S S  S S S S  S S  S S S S  S S  S S S S  S S  S S S S
|-15p9-15p9p5h9-15p9-15p9p5h9-14p9-14p9p5h9-14p9-14p9p5h7--|
|----------------------------------------------------------|
|----------------------------------------------------------|
|----------------------------------------------------------|
|----------------------------------------------------------|
|----------------------------------------------------------|


   T    T        T    T        T    T        T    T
   |----6-----|  |----6-----|  |----6-----|  |----6-----|
   S S  S S S S  S S  S S S S  S S  S S S S  S S  S S S S
|-14p7-14p7p3h7-14p7-14p7p3h7-12p7-12p7p3h7-12p7-12p7p3h7-|
|---------------------------------------------------------|
|---------------------------------------------------------|
|---------------------------------------------------------|
|---------------------------------------------------------|
|---------------------------------------------------------|


   T    T        T    T        T    T        T   T
   |----6-----|  |----6-----|  |----6-----|  |----6----|
   S S  S S S S  S S  S S S S  S S  S S S S  S S S S S S
|-12p6-12p6p3h6-12p6-12p6p3h6-10p6-10p6p3h6-10p6-9p6p3h5--|
|---------------------------------------------------------|
|---------------------------------------------------------|
|---------------------------------------------------------|
|---------------------------------------------------------|
|---------------------------------------------------------|


   T    T        T    T        T    T       T   T
   |----6-----|  |----6-----|  |----6-----| |----6----|
   S S  S S S S  S S  S S S S  S S  S S S S S S S S S S
|-12p5-12p5p2h5-12p5-12p5p2h5-10p5-10p5p2h5-9p5-9p5p2h6-|
|-------------------------------------------------------|
|-------------------------------------------------------|
|-------------------------------------------------------|
|-------------------------------------------------------|
|-------------------------------------------------------|


  H.=H
   T    T            T    T            T    T           T   T
   T T  T T T T T T  T T  T T T T T T  T T  T T T T T T T T T T T T T T
|-12p6-12p6p3p0h3h6-12p6-12p6p3p0h3h6-10p6-10p6p3p0h3h6-9p6-9p6p3p0h2h5---|
|-------------------------------------------------------------------------|
|-------------------------------------------------------------------------|
|-------------------------------------------------------------------------|
|-------------------------------------------------------------------------|
|-------------------------------------------------------------------------|


   T    T            T    T            T    T           T   T
   T T  T T T T T T  T T  T T T T T T  T T  T T T T T T T T T T S S
|-12p5-12p5p2p0h2h5-12p5-12p5p2p0h2h5-10p5-10p5p2p0h2h5-9p5-9p5p2h5-|
|-------------------------------------------------------------------|
|-------------------------------------------------------------------|
|-------------------------------------------------------------------|
|-------------------------------------------------------------------|
|-------------------------------------------------------------------|


   \1/ \0.5/   \0.5/      \1/
                               ~
  +E   E     E E      E a E    Q
|-(5)--3S====2-------------------|
|--------------3-----------------|
|--------------------------------|
|------------------------------7-|
|--------------------------------|
|---------------------2-5-7------|


                               Intro
                             Moderate Q=96
  \1/
  ~~~~~~~~~~~
  H      +E.  +S      E   E     S S S S S S S S S S S S S S S S
|-------------------^14\-----||---------------------------------|
|-3------(3)--(3)/--^15\-----||-x-x-7-7-7-8-------------8-7-8-7-|
|-2------(2)--(2)/--^14\-----||-x-x-7-7-7-7-------------7-7-7-7-|
|----------------------------||-x-x-7-7-7-7-------------7-7-7-7-|
|----------------------------||---------------------------------|
|-4------(4)--(4)/-----------||-------------0-0-0-0-0-0---------|


  PM----|             PM--|
  S S S S S S S S S S S S S S S S   S S S S S S S S S S S S S S S S
|---------------------------------|---------------------------------|
|---------------2---2-----3-2-3-2-|---7-7-7-7-8-------------8-7-8-7-|
|-0-0-0---0-----2---2---2-2-2-2-2-|---7-7-7-7-7-------------7-7-7-7-|
|---------------2---2---2-4-2-4-2-|-x-7-7-7-7-7-------------7-7-7-7-|
|-2-2-2-2-2s3---0---0-0-0---------|-x-------------------------------|
|---------------------------------|-x-----------0-0-0-0-0-0---------|


  PM----|
                   |----3-----|
  S S S S S S S S  S      S   S S S S   S S   S
|-----------------------------------------------||
|-----------------------------------------------||
|-0-0-0-0-0---2-2-[4]b7r([4])-2-----------------||
|-------------2-2---------------4-2-------------||
|-2-2-2-2-2s3-0-0-------------------3b4p0-------||
|-----------------------------------------3b4p0-||


 Chorus 1
  S S S S S S S S S S S S S S S S
|---------------------------------|
|-----7-7-7-8-------------8-7-8-7-|
|-----7-7-7-7-------------7-7-7-7-|
|-----7-7-7-7-------------7-7-7-7-|
|---------------------------------|
|-0-0---------0-0-0-0-0-0---------|


  PM----|
  S S S S S S S S E  S S S  S  S  S    S  S S S S S S S S S S S T T T T S S
|------------------------------------|----------------------------------------|
|--------------------2---3p=2--3p=2--|---/7-7-7-7-8-----8p7-8p7-7h8p7---7-x\--|
|---0-----0-----2----2---2-(2)-2-(2)-|---/7-7-7-7-7-----7---7---7-------7-x\--|
|---------------2----2---4p=2--4p=2--|---/7-7-7-7-7-----7---7---7-----9---x\--|
|-2-2-2-2-2s3---0----0-0-------------|-0--------------------------------------|
|------------------------------------|-0------------0-0---0---0---------------|


           |----6-----|  |----6----|
  E   e Q  S S S S S  S  S S S S S S
|----------5p2-----2-----------------||
|-----2-2------5-2---[5]-2---2-------||
|-----2-2------------------5---4p2---||
|-----2-2--------------------------4-||
|-3b4-0-0----------------------------||
|------------------------------------||


 Verse
   ~~           PM|           ~             PM|   PM    PM|
   Q  S S S S S S e S S S S   E S S S S S S S S S S S S S S
|---------------------------|--------------------------------|
|-/7--------7-----7---7---7-|-7---7---x---7-----7---5-7------|
|-/7----2s7-7-----7-9-7---7-|-6---6---x---6-----6---6-6------|
|-/7----------7-7-------9---|---7-------7---7-7---7-----7-7--|
|---------------------------|--------------------------------|
|---------------------------|--------------------------------|


   ~~ PM--|   PM|
                    |-3-|
   Q  S S S S S S e S S S E    E   e E. S S  S  S S +S   S   S S
|----------------------------|-----------------------------------|
|-/7--------8-----7-5h7p5----|----------2-2h=3----3-(3)p=2-------|
|-/5--------5-----5-------7\-|-----2-2--2-2-(2)---2-(2)-(2)----9-|
|-----5-5-5---5-5---------7\-|-----2-2----2h=4----4-(4)p=2-----9-|
|----------------------------|-3b4-0-0----0-----0-----------/7-7-|
|----------------------------|-----------------------------------|


      PM--------------| ~       PM--------------|
  +E  e e e E S S S S S S   +E  e e e e s s S S S S
|-------------------------|-------------------------|
|-------------------------|-----------------------7-|
|-(9)---------------------|-----------------------7-|
|-(9)-9-9-9-9-9-9-------9-|-(9)-9-9-9-9-9-9-----9-7-|
|-(7)-7-7-7-7-7-7-7-9-7-6-|-(6)-6-6-6-6-6-6-6h7-6-5-|
|-------------------------|-------------------------|


      PM--------|
  +E  e e e e s s S S S S   +E  E E S S S S S S +S   S  S S
|-------------------------|---------------------------------|
|-(7)-------------------4-|-(4)---------4-5---5-(5)p=4--4-4-|
|-(7)-------------------4-|-(4)-4-4-----4-4-4-4-(4)-(4)-4-4-|
|-(7)-------------------4-|-(4)-4-4-----4-6-6-6-(6)p=4--4-4-|
|-(5)-5-5-5-5-5-5-5h7-5-2-|-(2)-2-2-2s4---------------------|
|-------------------------|---------------------------------|


  +S   S  E Q  S S E  Q
|------------------------||
|-(4)----------4-5-5-----||
|-(4)-----4-4--4-4-4-----||
|-(4)-(0)-4-4--4-6-6-----||
|---------2-2------------||
|---------------------9\-||


 Chorus 2
  S E S E S S E S S E S S   Q  E S S S S S S S S S S
|-------2-----------2-2---|----3-5-------------------|
|-3-3---3-3-3-------3-3---|----0---------------------|
|-2-2-2-2-2-2-2-2-2-2-2p0-|-0--0-----5s4s5s4-5s4-----|
|-0-0---------0-0-0-0-----|-0--------------------5s2-|
|-------------------------|--------0-3s2s3s2-3s2-----|
|-------------------------|-5--------------------5s2-|


           PM|
                                                          |--3--|
  Q  E S S S S S S S S E   E e E. S  a    +S   S    +S  S S   S S S S
|----2---------2---0h2-2-|--------------------------------------------|
|-3--3---3-----3---3-3-3-|--------------------------------------------|
|-2--2-2-2-2-2-2-2-2-2-2-|---2-2----[4]b6-(4)r[4]b6-(4)r4-4b6r4p2-----|
|-0--0-0-0-0-0---0-----0-|---2-2--2-------------------------------4p2-|
|------------------------|-3-0-0--------------------------------------|
|------------------------|--------------------------------------------|


  PM|   PM  PM|
  S S S S S S S S a E S S S S S S   Q  E S S S S S S S S S S
|-----2---2-----------2---0-2-----|----3---------------------|
|-----3---3-----3---3-3-3-3-3-3---|----0---------------------|
|-2-2-2-2-2-2-2-0-0h2-2-2-2-2-2p0-|-0--0-0-4s5s4s5s4-5s4-----|
|-0-0---0---0-0-----0-------------|-0--------------------5s2-|
|---------------------------------|--------2s3s2s3s2-3s2-----|
|---------------------------------|-5--------------------5s2-|


                                                              T
                                             |--3---|
  Q  E S S +E  S S S  S  S S   E   e Q  E   +S   S  S   a     E. S
|----2---------2---0h=2------|-------------------------------------||
|-3--3---3-(3)-3---3-(3)-3-3-|-------------------------------------||
|-2--2-2-2-(2)-2---2-(2)-2---|-----2-2--4b6-(4)r(4)-2--(4)b6-12rp4-||
|-0----0-0-(0)---0-------0---|-----2-2-----------------------------||
|----------------------------|-3b4-0-0-----------------------------||
|----------------------------|-------------------------------------||


 Verse 2
         PM  PM|                  PM  PM|     PM|
  Q  S S S S S S S S S S S S    E S S S S S S S S S S S S S S
|-2--------3-----2-2-0-2-----|--------------------------------|
|-3--3-3---3-----3---3-3-3-3-|-/7---7-------8-----7-7-5-7-----|
|-2--2-2-2---2-2-----2---2-2-|-/6---6-------6-----6-6-6-6---0-|
|-0--------------------------|----7---7-7-7---7-7---------0---|
|----------------------------|--------------------------------|
|----------------------------|--------------------------------|


  S S S S S S S S S S e S S E    E   e E. S S  S  S S +S  S S S
|------------------------------|--------------------------------|
|-7-7-----------8-----7-5-7----|------------2h=3--3-3-(3)-2-----|
|-5-----5-------5-----5-5-5-5\-|-----2-2--2-2-(2)-2-2-(2)-2---9-|
|-----5---5-5-x---x-x-------5\-|-----2-2----2h=4--4-4-(4)-2-0-9-|
|------------------------------|-3b4-0-0----------------------7-|
|------------------------------|--------------------------------|


      PM------------|   ~~~~~~~~
  +E  e e e e s s S S S S   +E  e e e e s s S S S S
|-------------------------|-------------------------|
|-------------------------|-----------------------7-|
|-(9)---------------------|-----------------------7-|
|-(9)-9-9-9-9-9-9-------9-|-(9)-9-9-9-9-9-9-----9-7-|
|-(7)-7-7-7-7-7-7-7-9-7-6-|-(6)-6-6-6-6-6-6-6h7-6-5-|
|-------------------------|-------------------------|


      PM--------------|
  +E  e e e e s s S S S S   +E  E E S S S  S  S S +S   S  S S
|-------------------------|-----------------------------------|
|-(7)-------------------4-|-(4)---4-----4h=5----5-(5)--4--4-4-|
|-(7)-------------------4-|-(4)-4-4-----4-(4)-4-4-(4)-(4)-4-4-|
|-(7)-7-7-7-7-7---------4-|-(4)-4-4-----4h=6--6-6-(6)--4--4-4-|
|-(5)-5-5-5-5-5-5-5h7p5-2-|-(2)-2-2-2s4-----------------------|
|-------------------------|-----------------------------------|


              |-3-|           |-3--|
  S S E E S S S S S  S  S    +S  S S S S
|-----------x----------------------------||
|-x-x-----x-x-----5s14-------------------||
|-x-x-4-4-x-x----------[6]b8r(6)p4---4p0-||
|-x-x-4-4-x---4h6------------------6-----||
|-----2-2--------------------------------||
|----------------------------------------||


 Chorus 3
  S E S E S S E S S E S S   Q  E S S S S S S S S S S
|-------2-----------2-2---|----3---------------------|
|-3-3---3-3-3-------3-3---|----0---------------------|
|-2-2-2-2-2-2-2-2-2-2-2p0-|-0--0-----5s4s5s4-5s4-----|
|-0-0---------0-0-0-0-----|-0--------------------5s2-|
|-------------------------|------0-0-3s2s3s2-3s2-----|
|-------------------------|-5--------------------5s2-|


         PM--|   PM                                          ~
                                                |--3---|
  Q  E S S S S S S  S  S  E    E   e E.  S E   +S   S  S a   E T  T  T T
|----2---------2----0h=2--2--|-------------------------------------------|
|-3--3---3-----3----3-(3)-3--|-------------------------------------------|
|-2--2-2-2-2-2-2-2--2-(2)-2--|-----2-2-----4b6-(4)r(4)-2-4b6-9-4r(4)-2-0-|
|-0--0-0-0-0-0---0--------0--|-----2-2---2-------------------------------|
|----------------------------|-3b4-0-0-----------------------------------|
|----------------------------|-------------------------------------------|


  S E S E S S E S S E S S   E  S S E S S S S S S S  E  S
|-------2-----------2-2---|--------3-----x---5p3-5p=3----|
|-3-3---3-3-3-------3-3---|--------3---3-x-3-3-3-3-(3)p0-|
|-2-2-2-2-2-2-2-2-2-2-2p0-|-0--0-0-0---0-----------------|
|-0-0---------0-0-0-0-----|-0--0-0---0-------------------|
|-------------------------|------------------------------|
|-------------------------|-5--5-5-----------------------|


  E S S E S S +E  S S S  S  S S   H                        Q  E.   S
|-------2-------------0h=2------|------------9-----7-----5-----------|
|-3-3-3-3---3-(3)-3---3-(3)-3-3-|---------------------------------12-|
|-2-2-2---2-2-(2)-2---2-(2)-2---|-----2--4s9---9s7---7s6---6\------4-|
|-0-0-0---0-0-(0)---0-------0---|-----2----------------------------4-|
|-------------------------------|-3b4-0----------------------------2-|
|-------------------------------|------------------------------------|
                                  E   E  S S S S S S S S S E       S


 Guitar Solo
  B5                C5                               A/C#
  Gtr II
    E    E     E  S  S +E          E      E       S   S
    |    |     |  |  |  |          |      |       |   |
    /    /     /  /  /  /          /      /       /   /

  Gtr III
    ~~~~~~~~            ~~~~~~~~~~                      ~~~
    E.  +S  a  S  S  S  S     +E.  T  T   S      +S   S S
|---------------------------------------------------------|
|-(12)-(12)-----------------------------------------------|
|-----------9s11-12-14-12b14-(12)-12-11-[12]b14-(12)r11-9-|
|---------------------------------------------------------|
|---------------------------------------------------------|
|---------------------------------------------------------|


                    D5                         B5
  +E  E  E     S      S       +E  E    S  S  S  S
   |  |  |     |      |        |  |    |  |  |  |
   /  /  /     /      /        /  /    o  o  o  /

 ~~~~~
                      |---3----|
  +Q  S  S  S  S     +S   +S   S  S S  S  S  S  S
|--------------------------------------------------|
|--------------------------------------------------|
|-(9)-9h11S12-11b12-(11)r(11)p=9-11-9-11h12-11-----|
|----------------------------------------------12--|
|--------------------------------------------------|
|--------------------------------------------------|


                      C5                    A/C#
   +E  E       S  S S  S  +E   E    S  S  S  S
    |  |       |  | |  |   |   |    |  |  |  |
    /  /       /  o o  /   /   /    o  o  o  /

          \1___|
                       ~~~~~~~   ~~~~~~
   +Q     a    E.      S  +E   S S +E     S  S
|----------------------------------------------|
|--------15---15------13-(13)------------------|
|-----------------------------12s9-(9)---12-12-|
|-(12)-----------------------------------------|
|----------------------------------------------|
|----------------------------------------------|


                            D5        A5
  +E  E         S   S  S     S  +E  E  Q
   |  |         |   |  |     |   |  |  |
   /  /         o   o  o     /   /  o  /

   ~~                        ~~        ~~
   E  S  S     +S   S  S     S  +Q     Q
|-----------------------------------------|
|------------------15---------------------|
|-14-14-14b16-(14)----14b16r14-(14)---14--|
|-----------------------------------------|
|-----------------------------------------|
|-----------------------------------------|


  D5
   e        e        e     e     e        e        e     e
   |        |        |     |     |        |        |     |
   /        /        /     /     /        /        /     /

                                                           ~
   |------6-------|              |------6-------|  |--3--|
   S  S  S  S  S  S  S  E  T  T  s  s  s  s  s  s  s  s  S E
|----------10h12h14-15s17-------17-15-14---------------------|
|----------------------------15----------15------------------|
|-11h12h14----------------16----------------14-12-11---------|
|----------------------------------------------------12------|
|-------------------------------------------------------12s9-|
|------------------------------------------------------------|


  A5
  E         E          E       E          E            E             E       E
  |         |          |       |          |            |             |       |
  /         /          /       /          /            /             /       /

  |--3--|                   |----5-----|
  S S T T T T T T  T T T  T T  T  T T  T  T  T T  T  T T  T  T T  T  T T  T  T t t
|-----------------------------------9-10-12p10p9----10p9-------9-------------------|
|---------------------------9s10-12--------------12------12p10---12p10p9-12-10-9-9-|
|--------------------7-9-11--------------------------------------------------------|
|-----------5-7h9s11---------------------------------------------------------------|
|-7-x-9-5-7------------------------------------------------------------------------|
|----------------------------------------------------------------------------------|


  D5
   E           E        E     E           E        E        E        E
   |           |        |     |           |        |        |        |
   /           /        /     /           /        /        /        /

   |------6-------|  |------6-------|  |--3--|  |3-|  |------6-------|
   S  S  S  S  S  S  S  S  S  S  S  S  S  S  S  e  S  s  S  S  S  S  S
|----------------------------------------------15----14----------------|
|-12h14-15-12h14-15-------15-------15-------------------------15-------|
|-------------------12-14----12-14----12-11-12----11----12p11----12p11-|
|----------------------------------------------------------------------|
|----------------------------------------------------------------------|
|----------------------------------------------------------------------|


  G5              G5(type 2)                  E5
   Q      S     S  E      E   E        S  S S  S
   |      |     |  |      |            |  | |  |
   /      o     /  /      /            o  o o  /

   ~~~~~                  ~~~~~~~~     PM---|
   Q      S     S  E      E  +S     S  S  S S  S
|----------------------------------------------------|
|----------------------------------------------------|
|-12b14--14b16r14-12b14--12-(12)\-----12-11-9-11b13--|
|---------------------------------/12----------------|
|----------------------------------------------------|
|----------------------------------------------------|


   +S  S  S S  S     T  T  S  S   S     S  S     S  S     T T  S S
|---------9--------------------------------------------------------|
|------9----9-12b14r12--9---------------9--------9-11b13r11p9------|
|-(11)--------------------11--9--11b13----11b13---------------11-9-|
|------------------------------------------------------------------|
|------------------------------------------------------------------|
|------------------------------------------------------------------|
|
| Gtr II
|   S  S  S S  S     S  S  S +S   S     S  S     S  S     S S
|------------------------------------------------------------------|
|------------------------------------------------------------------|
|--(9)-----------------11--9-(9)--9--------x--------9--------------|
|--(9)-9-11-9-12-----9-11--9-(9)-------11-------12--9----11-9------|
|--(7)---------------------7-(7)--------------------7--------------|
|------------------------------------------------------------------|


  PM---------------------------------|
  |-----6-----| |-----6------|  |------6-------|
  S S  S S S  S S S  S S  S  S  S  S  S  S  S  S  E.    +S
|------------------------------11-12-14-16-17-19-19b21-(19)\---||
|----------------------9-10-12---------------------------------||
|---------------8-9-11-----------------------------------------||
|--------7-9-11------------------------------------------------||
|-7-9-11-------------------------------------------------------||
|--------------------------------------------------------------||
|
| |-3--| |-3--| |-3--| |--3--|  |--3--|  |--3--|
| E    S S S  S E    S S  S  S  E     S  S  S  S  Q
|--------------------------------------------------------------||
|--------------------------------------------------------------||
|-9----9-9-9--9-9----9-9--9--9--9-----9--9--9--9--9\-----------||
|-9----9-9-9--9-9----9-9--9--9--9-----9--9--9--9--9\-----------||
|-7-------------7---------------7-----------------7\-----------||
|--------------------------------------------------------------||


 Re-Intro
  Gtr II
  S S S S S S S S S S S S S S S S   S S S S S  S  S S S S S S S  S  S  S
|---------------------------------|---------------------------------------|
|-x-x-7-7-7-8-------------8-7-8-7-|-----------------2---2-----3p=2--3p=2--|
|-x-x-7-7-7-7-------------7-7-7-7-|---------0-(0)---2---2-----2-(2)-2-(2)-|
|-x-x-7-7-7-7-------------7-7-7-7-|---0-------------2---2---2-4p=2--4p=2--|
|---------------------------------|-2---2-2-2h=3----0---0---0-------------|
|-------------0-0-0-0-0-0---------|---------------------------------------|


  S  S S S S S S S S S S S S S S S
|----------------------------------|
|---/7-7-7-7-8-------------8-7-8-7-|
|---/7-7-7-7-7-------------7-7-7-7-|
|-x-/7-7-7-7-7-------------7-7-7-7-|
|-x--------------------------------|
|-x------------0-0-0-0-0-0---------|


  PM----|                              ~~~~~
                    |-----3-----|
  S S S S S S E a   S  S    S S E a    E T +T  T T
|--------------------------------------------------|
|--------------------------------------------------|
|---------0-0-2-4b6-4r(4)b6-4r4-2-4b6-12p4r(4)p2p0-|
|---0---------2------------------------------------|
|-2-0-2-2-2s4-0------------------------------------|
|--------------------------------------------------|


 Interlude
                                       A5
                                       Gtr II
  W           W             W          W
                                       |
                                       /

  W           W        H    Q    Q        W
|-------|-----------|----------------|-------|
|-------|-----------|----------------|-------|
|-------|-----------|----------------|-------|
|-------|-----------|----------------|-------|
|-------|-----------|-----------15\--|-------|
|-------|-----------|----------------|-------|


  +H.                                   Q
   |                                    |
   /                                    x

  Gtr III
   T     T     T     T     T     T
   |----6----| |----6----| |----6----|
   S S S S S S S S S S S S S S S S S S  E   E
|--7p5p0-7p5p0-7p5p0-7p5p0-7p5p0-7p5p0--x\-----|
|---------------------------------------x\--x\-|
|---------------------------------------x\--x\-|
|-------------------------------------------x\-|
|----------------------------------------------|
|----------------------------------------------|


 Outro-Chorus
  Gtr II
  Q  H      Q      H     S S S S S S S S
|----0-----------|-----------------------|
|----0-----------|-----------------------|
|-----------9\---|-2-----7s6s7s6-7s6-----|
|-2---------9\---|-2---------------------|
|-2--------------|-0-----5s4s5s4-5s4-0---|
|-2--------------|---------------------0-|


                                       |3|    |-3--|
  Q   H        Q       S   +S  e  Q    E S    S  S S S S S S
|-----0--------------|----------------------------------------|
|-----0--------------|----------------------------------------|
|--------------9\----|---------4--4----6-6b8r(6)p4---4-4------|
|-2------------9\----|---------4--4----------------6-----6p4--|
|-2------------------|-5b6-(5)-2--2---------------------------|
|-2------------------|----------------------------------------|


                             ~~
  S E  S  E.   S S S S S +S  E.    E.  S S E.   E.   S S E.
|--------------------------------|---------9\------------9\-|
|---------5------------5-(5)-5---|--------------------------|
|---------4------------4-(4)-4---|-2---6s9------2----6s9----|
|-1s2----------x-1s2-------------|-2------------2-----------|
|--------------x-----------------|-0------------0-----------|
|--------------------2-----------|--------------------------|


                                            |----6----| |----6----|
  E  e  Q   S S S S E.   S   S   +S  e  Q   S S S S S S S S S S S S
|----0--0------------------|--------------------------4-5-7-5-4------|
|----0--0------------------|--------------------4-5-7-----------7-5--|
|---------------9-x-9------|---------4--4---4-6----------------------|
|-2-------------9-x-9------|---------4--4----------------------------|
|-2---------4s7-----7----4-|-5b6-(5)-2--2----------------------------|
|-2------------------------|-----------------------------------------|


                                                   T         T
                                     |--3---|                     |-3--|
  Q   Q   E  E   Q   Q.   S    S    +S   S  S  a   S T T a   S S +S  S S
|-----0----------0-|-----------------------------------------------------|
|-----0----------0-|-----------------------------------------------------|
|------------------|-4----4b6r(4)b6-(4)r(4)p2--4b6-7p4r4-4b6-7p4-(4)r4p2-|
|-2-------2--2-----|-----------------------------------------------------|
|-2-------2--2-----|-----------------------------------------------------|
|-2-------2--2-----|-----------------------------------------------------|


                                         \1/
                                            |-3-|
  Q   Q   E  E  E.  S    S   +S  e  E   +S  S S S S S  S    S   S   S   S
|-----0---------0------|---------------------------------------------------|
|-----0---------0------|---------------------------------------------------|
|----------------------|---------4--6b8-(6)r6-4---4---[6]--[x]-[6]---------|
|-2-------2--2---------|---------4--------------6---6--------------[x]-[6]-|
|-2-------2--2------4--|-5b6-(5)-2-----------------------------------------|
|-2-------2--2---------|---------------------------------------------------|


                                      PM|
                                                      |-3-|
  E  S S E  S S S S S S +S  a S E   E S S E S S S S   S S S S S S S
|---------------------0-(0)-------|---------------------------------|
|----0-0----0-----0---0-(0)-------|-------2-----------------2-------|
|----1-1------1-2-----------1-2s1-|-2-----2---2---4b6r4p2-----------|
|-2------2----------x-------------|-2-----2---2-----------4---4-4-2-|
|-2-------------------------------|-0-0-0---4-----------------------|
|-2-------------------------------|---------------------------------|


                                                              \2
                                                  ~~~
  Q   E.  S S S S S E  E     S   +S  e Q     E    S  T   +T   E.  S
|-----0-------4-----4------|----------------------------------------|
|-----0-------------5--x\--|----------------------------------------|
|---------1s4---4-4----x\--|---------4-4-----4b6r(4)-4b6r(4)-[6]--0-|
|--------------------------|---------4-4----------------------------|
|-2------------------------|-5b6-(5)-2-2----------------------------|
|-2------------------------|----------------------------------------|


  S S E E S S +S  S S S +S  S S S
|---0-----0-----------0-(0)-------|
|---0---3---3-(3)---3-------3-----|
|-----------------1-----------1s2-|
|-2---2---------------------------|
|-2---2---------------------------|
|-2---2---------------------------|


  S T T S S S S S S +S  S S S +S  E S   +S  S S S +S  E S +H
|---------0-----------------0-(0)-----|-----------------0-(0)-*|
|-----0h2---0-2---------2---------2-0-|-(0)-----3-(3)---------*|
|---0-----------0---------------------|-------1-------1-------*|
|-----------------2-(2)---2-----------|-----0-----------------*|
|-0-----------------------------------|-----------------------*|
|-------------------------------------|-----------------------*|



Duration Legend
---------------
W - whole; H - half; Q - quarter; E - 8th; S - 16th; T - 32nd; X - 64th; a - acciaccatura
+ - note tied to previous; . - note dotted; .. - note double dotted
Uncapitalized letters represent notes that are staccato (1/2 duration)
Irregular groupings are notated above the duration line
Duration letters will always appear directly above the note/fret number it represents the
duration for.  Duration letters with no fret number below them represent rests.  Multi-
bar rests are notated in the form Wxn, where n is the number of bars to rest for.  Low
melody durations appear below the staff

Tablature Legend
----------------
 h   - hammer-on
 p   - pull-off
 b   - bend
 pb  - pre-bend
 r   - bend release (if no number after the r, then release immediately)
 /\  - slide into or out of (from/to "nowhere")
 s   - legato slide
 S   - shift slide
 - natural harmonic
[n]  - artificial harmonic
n(n) - tapped harmonic
 ~   - vibrato
 tr  - trill
 T   - tap
 TP  - trem. picking
 PM  - palm muting
\n/  - tremolo bar dip; n = amount to dip
 \n  - tremolo bar down
 n/  - tremolo bar up
/n\  - tremolo bar inverted dip
 =   - hold bend; also acts as connecting device for hammers/pulls
 <> - volume swell (louder/softer)
 x   - on rhythm slash represents muted slash
 o   - on rhythm slash represents single note slash

Misc Legend
-----------
 |  - bar
||  - double bar
||o - repeat start
o|| - repeat end
*|  - double bar (ending)
 :  - bar (freetime)
 $  - Segno
 &  - Coda
Tempo markers -  = BPM(8/16=s8/s16), where s8 = swing 8ths, s16 = swing 16ths





Comments


Popular Extreme tabs & chords
More Than Words Bass Tabs
More Than Words Chords
Cupid's Dead 1 Tabs
Its A Monster Tabs
Li'l Jack Horny Tabs
Love Of My Life Tabs
Love Of My Life 1 Tabs
Naked 1 Tabs
Peacemaker Die Tabs
Love Of My Life Ukulele


Song lyrics



↑ Back to top | Tablatures and chords are parodies/interpretations of the original songs. You may use it for private study, scholarship, research or language learning purposes only
© 2014 AZChords.com Contact us | Privacy policy | DMCA | Add/correct tabs | Request tabs | Top 50 tabs