>
 >
Mutha

Mutha Bass Tabs

Extreme - Mutha chords, tabs, tablatures, lyrics

Guitar lessons | Add/correct | Request | Top 50 tabs Artists:  A B C D E F G H I J K L M N O P Q R S T U V W X Y Z 0-9

Mutha Bass Tabs – Extreme

CD, Sheet music, Poster

Do you like Mutha? Share with your friends now
Bass Tabs
MUTHA (DON'T WANNA GO TO SCHOOL TODAY)
EXTREME
WRITTEN BY NUNO BETTENCOURT & GARY CHERONE

  Standard Tuning
  Moderate Rock - 132bpm


  The Bass enters with the verse verse

G|-----------|-----------|-------------|-----------------|---------------|----------------|
D|-----------|-----------|-------------|-----------------|---------------|----------------|
A|5---55-5--5|4---44-4--4|3---33-3-3-3-|3/40-0-04/555--47|-7-7-7-7-7-7-76|-6-6-6-6-6-6h765|
E|-----------|-----------|-------------|-----------------|---------------|----------------|
						    Chorus
G|----------------|-----------------|--------------|--------------|--------------|--------------|
D|----------------|-----------------|--------------|--------------|--------------|--------------|
A|-5-5-5-5-5-5h75-|-------6/7-7---7/|-------7-77---|55---55-5---5-|--------------|55---55-5---5-|
E|---------------7|-7-7------7------|-7-7--7-----7-|--------------|33---33-3---3-|--------------|
  1/2								 1/2		   2nd Verse
G|-----------------|--------------|--------------|--------------|----------------|------------|
D|-------------7-7/|--------------|--------------|--------------|------------7-7/|------------|
A|3^0-0-0-3/40-----|55---55-5---5-|--------------|55---55-5---5-|3^0-0-03/40-----|5---55-5--5-|
E|-----------------|--------------|33---33-3---3-|--------------|----------------|------------|

G|------------|------------|-----------------|----------------|----------------|----------------|
D|------------|------------|-----------------|----------------|----------------|----------------|
A|4---44-4--4-|3---33-3----|3/40-0-04/555--47|-7-7-7-7-777h976|-6-6-6-6-666h765|-5-5-5-5-555h75-|
E|------------|------------|-----------------|----------------|----------------|---------------7|
				    Chorus				       1/2      1/2
G|----------------|---------------|--------------|--------------|--------------|---------------|
D|----------------|---------------|--------------|--------------|--------------|---------------|
A|------6/77-5/69-|-------7--77---|55---55-5---5-|--------------|55---55-5---5-|3^0--0-03^0-0--|
E|-7-7-----------7|-7-7--7------7-|--------------|33---33-3---3-|--------------|---------------|
					      1/2	       Guitar Solo
G|--------------|--------------|--------------|--------------|----------------|----------------|
D|--------------|--------------|--------------|-------5h775--|----------------|----------------|
A|55---55-5---5-|--------------|55---55-5---5-|3^0-0-0-----72|-2-2-23---3-3-34|-4-4-45--5-5/432|
E|--------------|33---33-3---3-|--------------|--------------|----------------|----------------|

G|------------------|---------------|----------------|----------------|----------------|--------------|
D|------------------|---------------|----------------|----------------|----------------|----5---445432|
A|-2-2-2-23---3-3-34|-4-4-45--5/-0--|5-5-5-5-5-5-5-5-|----------------|5-5-5-5-5-5-5-5-|--------------|
E|------------------|---------------|----------------|5-5-5-5-5-5-5-5-|----------------|3-------------|
	 fast
G|--------^-------|------------------|
D|---2--0h20h2----|------------------|
A|----------------|7----7------------|
E|-0---0------0-57|--5/7--5/7-3-0-0--|

  Chorus With No Instruments
					
				     Out Chorus
G|----------------|4-6-7-9-9--9/--|-------------|--------------|--------------|----------------|
D|----------4-6-7-|---------------|-------------|--------------|--------------|--------66779---|
A|----4-5-7-------|---------------|7---77-7---7-|--------------|77---77-7---7-|5/6-------------|
E|5-7-------------|---------------|-------------|55---55-5---5-|--------------|---7-7--------7-|

G|-------------|--------------|--------------|----------------|-------------|--------------|
D|-------------|--------------|--------------|--------6-------|-------------|--------------|
A|77---7--7--7-|--------------|77---77-7---7-|5/6-------9-7---|7---77-7---7-|--------------|
E|------0------|55---55-5---5-|--------------|---7-7--------9-|0----0-0---0-|55---55-5---5-|

G|--------------|----------------|--------------|--------------|--------------|--------7/8-----|
D|--------------|----------------|--------------|--7-----------|--------------|-----------9-9--|
A|77---77-7---7-|5/7-----5/6-----|-7---7--7---7-|--------------|-7---7--7---7-|5/7-------------|
E|00----0-0-----|---7-7-----7-7--|0-----0-------|55---55-5---5-|0-----0-------|---7-7----------|

G|--------------|--------------|--------------|
D|--------------|--------------|--------------|
A|77---77-7---7-|--------------|77---77-7---7-|
E|00----0-0-----|55---55-5---5-|--------------|





Comments


Popular Extreme tabs & chords
Cynical Bass Tabs
Play With Me Bass Tabs
Flow Chords
Cupid's Dead 1 Tabs
Its A Monster Tabs
More Then Words Tabs
Politicalamity 1 Tabs
Rest In Peace Tabs
Shadow Boxing Tabs
Star Intro Tabs


Song lyrics



↑ Back to top | Tablatures and chords are parodies/interpretations of the original songs. You may use it for private study, scholarship, research or language learning purposes only
© 2014 AZChords.com Contact us | Privacy policy | DMCA | Add/correct tabs | Request tabs | Top 50 tabs