>
 >
Comfortably Dumb

Comfortably Dumb Guitar Tabs

Extreme - Comfortably Dumb chords, tabs, tablatures, lyrics

Guitar lessons | Add/correct | Request | Top 50 tabs Artists:  A B C D E F G H I J K L M N O P Q R S T U V W X Y Z 0-9

Comfortably Dumb Guitar Tabs – Extreme

CD, Sheet music, Poster

Do you like Comfortably Dumb? Share with your friends now
Tabs
Hello everyone,
This is Comfortably Numb by Extreme and it is my first tab.
I would appreciate any constructive criticsm

Thanks.

Chorus
e|---------------------------------|
B|---------------------------------|
G|---------------------------------|
D|2p0---2p0------------------------|
A|---------------------------------|
E|----------------3^p0-------------| X3 then

e|------------------------------------------------|
B|------------------------------------------------|
G|------------------------------------------------|
D|-2p0---2p0---------7------------7--7--5-------2-|
A|-------------------7------------7--7--5-------2-|
E|-------------3^----5------------5--5--3-------0-|

e|------------------------------------------------------------|
B|------------------------------------------------------------|
G|-----------0-----------------------------------0--0---------|
D|-2p0--2p0---2---2p0--2p0-----2p0--2p0--------2--------------|
A|-----------------------------------------2h4--4-----2h4-----|
E|------------------------3^p0---------3^---------------------|

e|---------------------------------|
B|---------------------------------|
G|---------------------------------|
D|2p0---2p0------------------------|
A|---------------------------------|
E|----------------3^p0-------------| X3 then

e|------------------------------------------------|
B|------------------------------------------------|
G|------------------------------------------------|
D|-2p0---2p0---------7------------7--7--5-------2-|
A|-------------------7------------7--7--5-------2-|
E|-------------3^----5------------5--5--3-------0-|

e|------------------------------------------------------------|
B|------------------------------------------------------------|
G|----------0-------------------------------------------------|
D|-2p0--2p0--2-2p0--2p0-----2p0--2p0------7-7-7-7-7----5------|
A|----------------------------------------7-7-7-7-7--- 5------|
E|---------------------3^p0-----------3^--5-5-5-5-5----3------|


Verse 1
e|----------------------------------|
B|----------------------------------|
G|----------------------x--x---2*-2*|
D|----0---2---0---2-----------------|
A|----------------------------------|
E|----------------------------------| X2

e|-----------------------------------------------|
B|-----------------------------------------------|
G|-------------0---------------------x--x--2*-2*-|
D|-2p0------------2---0---2----------------------|
A|---------2-------------------------------------|
E|--------------------------------0--------------|

e|------------|
B|---------3--|
G|-2p0h2-2p0--|
D|------------|
A|------------|
E|------------|

e|-----------------------------------------------|
B|-----------------------------------------------|
G|-------------0---------------------x--x--2*-2*-|
D|-2p0------------2---0---2----------------------|
A|---------2-------------------------------------|
E|--------------------------------0--------------|

e|-----------------------------------|
B|-----------------------------------|
G|----------------------x--x---2*-2*-|
D|----0---2---0---2------------------|
A|-----------------------------------|
E|-----------------------------------|

e|--------------------------------|
B|--------------------------------|
G|--------------------------------|
D|----0---2------0h2-------------2|
A|--------------------------------|
E|--------------------3---5---7---|

e|-----------------------------------------------|
B|-----------------------------------------------|
G|-------------0---------------------x--x--2*-2*-|
D|-2p0------------2---0---2----------------------|
A|---------2-------------------------------------|
E|--------------------------------0--------------| X2

Verse Two

e|-----------------------------------|
B|-----------------------------------|
G|----------------------x--x---2*-2*-|
D|----0---2---0---2------------------|
A|-----------------------------------|
E|-----------------------------------| X2

e|------------------------------------------------|
B|------------------------------------------------|
G|-------------0---------------------x--x--2*-2*--|
D|-2p0------------2---0---2-----------------------|
A|---------2--------------------------------------|
E|--------------------------------0---------------|

e|----------------6------------------5h7------------------------------|
B|--7^----5-----7^----5-----7p5---------7^----5-----------------------|
G|--------------------------------------------------------------------|
D|--------------------------------------------------------------------|
A|-------------------------------------------------5h7--------------7-|
E|--------------------------------------------------------3---5---7---|

e|------------------------------------------------|
B|------------------------------------------------|
G|-------------0---------------------x--x--2*-2*--|
D|-2p0------------2---0---2-----------------------|
A|---------2--------------------------------------|
E|--------------------------------0---------------|

e|---7^r--------------------------------------|
B|--------5---7~--5---5-----------------------|
G|--------------------7---7p5---7-------------|
D|------------------------------7----7p5------|
A|------------------------------------------7-|
E|--------------------------------------------|

Bridge

e|-----------------|
B|-----------------|
G|----------------5|
D|---7----5-------5|
A|---7----5-------3|
E|---5----3--------|

e|------------------------------------------------|
B|------------------------------------------------|
G|------------------------------------------------|
D|----------------------0----------------0--------|
A|-------0------0---------------0--------------0--|
E|-0h1---0h1---0h1---0h1----0h1---0h1-------------|

e|--------------------------------------------------------|
B|--------------------------------------------------------|
G|--------------------------------------------------------|
D|-------0------2-----2-------0-------0-0-0-0-0-----------|
A|----------------------------------------------------2p0-|
E|-0h4---0h4---0h4--0h4-----0h4-------------------3-------|

e|-----------------------------------------------|
B|-----------------------------------------------|
G|-----------------------------------------------|
D|----------------------0----------------0-------|
A|-------0------0---------------0--------------0-|
E|-0h1---0h1---0h1---0h1----0h1---0h1------------|

e|--------------------------------------------------------|
B|--------------------------------------------------------|
G|--------------------------------------------------------|
D|-------0------2-----2-------0-------0-0-0-0-0-----------|
A|----------------------------------------------------2p0-|
E|-0h4---0h4---0h4--0h4-----0h4-------------------3-------|


e|--------------------------------------------------------------------|
B|--------------------------------------------------------------------|
G|-----2-------2-------2------2---------2----2---2----2----1(let ring)|
D|------------------------------------0----0---0----0-----------------|
A|----------------------------------0----0---0----0-------------------|
E|0h1---0h1----0h1---0h1----------------------------------------------|

e|------------------------------|
B|------------------------------|
G|-----2-------2-------2------2-|
D|------------------------------|
A|------------------------------|
E|0h1---0h1----0h1---0h1--------|

Solo (sorry if this is wrong)

e|--7------------------------7---------------------5--------------9-----|
B|--7^---7------5-----5------7^----7----5-----5----7^r---5h7p5--5-9---9~|
G|-----------------7-----------------------7--------------------7-------|
D|----------------------------------------------------------------------|
A|----------------------------------------------------------------------|
E|----------------------------------------------------------------------|

e|-----------10-----------------------------------------------------------------|
B|--10h12------------------------------10---------------10---------10-----------|
G|--------------12p9h12~----9--12------------------12---------12----------------|
D|---------------------------------------------9~----------7-----------5--| A|--|
E|------------------------------------------------------------------------------|

e|-------------------------------------------------------------------------|
B|--------------------------------10---10-----------------10---10----------|
G|------------------5--5---------13^-13^-13^rp10----13^--13^-13^r-10-------|
D|-5h7--7-7--7---------7----------------------------13---------------13----|
A|-------------------------------------------------------------------------|
E|-------------------------------------------------------------------------|

e|--------12----15p12----------------------------------------------|
B|--------------------15p12---15p12--------------------------------|
G|--14^--------------------------------------15p12--14^p12----15^--|
D|-----------------------------------------------------------------|
A|-----------------------------------------------------------------|
E|-----------------------------------------------------------------|
(play a few times while slowly releasing the bend)

e|-----------------------------------------------------|
B|-----------------------------------------------------|
G|--15^-15^-15^-15^-15^-15^-15--14p12------------------|
D|--------------------------------------------------14-|
A|-----------------------------------------------------|
E|-----------------------------------------------------|

e|----------------------------------------------------------------|
B|----------------------------------------------------------------|
G|---12-----12---------12------12---------12-----12---------------|
D|-------14-----14-12-----14------14---------14-----14------------|
A|------------------------------------------14-----------------12-|
E|----------------------------------------------------------------|

e|--------------------------------------|
B|--------------------------------------|
G|--12----------------------------------|
D|------10h12p10--10--------------------|
A|-------------------12---12p10---------|
E|----------------------------------12--|

e|-------------------------------------------------------------------------|
B|-------------------------------------------------------------------------|
G|(PM)---------------------------------------------------------------------|
D|------------------------------------------5-3----------------------------|
A|-----------------------------------3-5-3-----5-3-------------------------|
E|-0-3-0-5-0-0-3-0-0-5-0-0-5-----------------------------------------------|

Outro
e|---------------------------------------------------------|
B|---------------------------------------------------------|
G|---7----77----5--5----------5---55--------2--------------|
D|---7----77----5--5----------5---55--------2---2-2--------|
A|---9----99----3--3--0h2----3---33-------0---2-2----------|
E|-----------------------------------------0h3------0-0----|

e|----------------------|
B|----------------------|
G|----------------------|
D|-2--2--2--2--2-2-2----|
A|-2--2--2--2--2-2-2----|
E|-0--0--0--0--0-0-0----| (repeat these 2 times)


e|------------------------------------------------|
B|------------------------------------------------|
G|------------------------------------------------|
D|-9--99-----10101010-1010--12-1212--14-141414----|
A|-7--77-----8---8--8-8---8-8---10-1010--12-121212|
E|------------------------------------------------|

e|--------------------------------------------------------------------|
B|----(PM then slowly back it off)------------------------------------|
G|--------------------------------------------------------------------|
D|--------------------------------------------------------------------|
A|-2-2-2-2-2-2-2222-3-3-3-3-3-3-3333-4-4-4-4-4-4-4444-5-5-5-5-5-5-5555|
E|-0-0-0-0-0-0-0000-0-0-0-0-0-0-0000-0-0-0-0-0-0-0000-0-0-0-0-0-0-0000|

Order:
Chorus
Verse 1
Chorus
Verse 2
Chorus
Bridge
Solo
Chorus
Outro

| /  slide up
| \  slide down
| h  hammer-on
| p  pull-off
| ~  vibrato
| +  harmonic
| *  artificial picking
| x  Mute note
| ^  String bend
===============================================================================





Comments


Popular Extreme tabs & chords
He-man Woman Hater Bass Tabs
Kid Ego Bass Tabs
Money Bass Tabs
Flow Chords
Hole Hearted Tabs
Its A Monster Tabs
More Than Words 3 Tabs
Mutha (Solo) Tabs
Star Intro Tabs
When I'm President Tabs


Song lyrics



↑ Back to top | Tablatures and chords are parodies/interpretations of the original songs. You may use it for private study, scholarship, research or language learning purposes only
© 2014 AZChords.com Contact us | Privacy policy | DMCA | Add/correct tabs | Request tabs | Top 50 tabs