» » »

Extol, Grace For Succession Tabs (ver.2)

Artists:  A B C D E F G H I J K L M N O P Q R S T U V W X Y Z # 

Grace For Succession Tabs (ver.2)

Extol Tabs
 Rating:
4.3/5 (6 votes)
Grace For Succession lessons Tabs too difficult? Try these video lessons and learn fast
                Grace for Succession
Label: Century Media Records


(comments and corrections please!)


drop E to D and rock:


(to get into the beat i try to keep it as detailed as possible:)


Intro *******************************************00:00
13/4


------------------------------------------|
------------------------------------------|
------------------------------------------|
--------------------------------8-7-0-5-7-|
-777-5-6-7777-0-0-0-555-8-5-7-0-----------|
-777-5-6-7777-0-0-0-555-8-5-7-0-----------|


git1            git2
----------      -----------|
----------      -----------|
----------      -----------|
-8-7-0-5-7      -----------|
----------      -1-0-----1-|
----------      -----3-2---|

repeat 4 times, at beat 3 the solo guitar does something like that:

-5-------------------------|
---------------------------|
---7>6---------------------|
-------7-8-8>10------------|
----------------9-10-10>12-|
---------------------------|

*******************************************00:16
9/8

-------------  -----------------|
-------------  -----------------|
----------2--  -------------2---|
------1-1---3  -------1-1-0---3-|
-0-0---------  -00000-----------|
-0-0---------  -00000-----------|


repeat 4x


*******************************************00:21
8/8


*******************************************00:27

solo git:
---------------10-9-|
-----7--------------|
-7-9---9-7-7-9------|
--------------------|
--------------------|
--------------------|

*******************************************00:29
8/8
9/8


rythm with accents:
1 2 3 4 5 6 7 8
x

1 2 3 4 5 6 7 8 9
x     x


--------------  -------------|
--------------  -------------|
---------2----  ---------2---|
-1-0-1-0---(3)  -111-1-1---3-|
--------------  -------------|
--------------  -------------|


---------------  ---------------|
---------------  ---------------|
---------------  ---------------|
------------2-3  -----------2-3-|
-01-1-0-1-0----  -111-1-1-0-----|
---------------  ---------------|
---------------  ---------------|

*******************************************00:40
8/8
9/8

git1

repeat the strange things from above 4 more times


Man - born with the nature of evil
All inherited the sin from Adam
No man escaped
The commandments - the law
No one were able to fulfil
No man was pure

*******************************************00:51
6/8


 C Bb A Bb   C Bb A G
----------  ----------|
----------  ----------|
-5-3------  -5-3------|
-5-3------  -5-3------|
-3-1--5-6-  -3-1--5-3-|
------5-6-  ------5-3-|

*******************************************01:06

repeat plus this wonderful solo git:

----------------------  --------------------|
----------------------  --------------------|
-5-8-7----------------  -5-58-7-7-5-->12-10-|
-------8>10-12-10-8-8-  ------------8-------|
----------------------  --------------------|
----------------------  --------------------|


Everyone's share was death
All was dark - hopelessness ruled

Light intervened
Annihilating darkness
The path of salvation made clear
For the prodigal human race


chorus *******************************************01:21
4/4

 E  D#                                 G
------                                ---|
------                                ---|
------  repeat, last note is probably ---|
------                                ---|
-2--1-                                -3-|
-2--1-                                -3-|

Given to mankind
For all to receive
Sacrifice of life
For all to believe

verse (=intro) *******************************************01:52

This unnatural act of love
A model for succession
The act of forgiveness
A supernatural force

chorus *******************************************02:08

as above

*******************************************02:40
3/4

like this: 12345-12345-12345

------------------------------|
------------------------(2)---|
-4-4-4-4-(4)-(4)--4---4--2--4-|
-4-4-3-3--3--3----3---3--0--2-|
-2-2-2-2--2--2----3---3--0--2-|
----------5--5----3---3--0--2-|

while the solo git also does the 5-thing:

part C *******************************************02:56
4/4
in a strange kind of very off beat


*******************************************03:29
4/4
straight beat again

solo guitar has 5/8
it should fit the pattern of the rythm part
(4x the first beat, 4x the second etc...)

2x               2x
---------------  --------------|
-12-0-------0--  -12-0---------|
------14-11----  ------14-12-0-|
---------------  --------------|
---------------  --------------|
---------------  --------------|

4x               4x
---------------  --------------|
-12-0-------0--  -12-0-------0-|
------14-12----  ------14-11---|
---------------  --------------|
---------------  --------------|
---------------  --------------|

end1
----------------------------|
----------------------------|
-14-11-13-11-14-13-11-14-11-|
----------------------------|
----------------------------|
----------------------------|


end2


--------------|
-12-0-------0-|
------14-11---|
--------------|
--------------|
--------------|


aaaaand here we go again ;)=
            
Submit corrections

comments powered by Disqus
↑ Back to top | Extol Tabs for Grace For Succession. Lyrics for acoustic guitar and electric guitar. Tablatures and chords are parodies/interpretations of the original songs. You may use it for private study, scholarship, research or language learning purposes only