» » »

Extol, Grace For Succession Tabs (ver.1)

Artists:  A B C D E F G H I J K L M N O P Q R S T U V W X Y Z # 

Grace For Succession Tabs (ver.1)

Extol Tabs
 Rating:
4/5 (8 votes)
Grace For Succession lessons Tabs too difficult? Try these video lessons and learn fast
1
                ----------------------------------------------------------------------------
                       "GRACE FOR SUCCESSION" - Extol
----------------------------------------------------------------------------

Tuning: Standard D
Note: Tune your 6th string to D, then tune the rest of the strings the normal way. Extol
not play in Dropped D as noted on other tabs.

I was just way too lazy to tab all the palm mutes, hammers, pulls and slides. The parts
challenging enough to figure out. If you can get through the song, you are good enough
know how to stylize the notes and chords to make it sound like the original. Crack your 
and get to work...Good Luck!

Riff A (Intro)

e|-------------------------------------------------------------------------|
B|-------------------------------------------------------------------------|
G|-------------------------------------------------------1--0--------------|
D|-4-4-4--4-2-2-3-3--3-3-3--3-------2-2-2-----------------------------4----|
A|-2-2-2--2-0-0-1-1--1-1-1--1-2-2-2-0-0-0--3------2------------------------|
E|----------------------------0-0-0------------4------3---------3--2-------|

Fill A (3rd & 4th times of Riff A)

e|--7---------------------------------------------4-3---------------|
B|----7-----------------------------------------------------7-------|
G|------8--4-5--5-7-7-------------------5----4----------------------|
D|---------------------5-6--6-7-6--777----6----5-------5-4----------|
A|------------------------------------------------------------------|
E|------------------------------------------------------------------|

Riff B (4x)

e|----------------------------------------------------------|
B|----------------------------------------------------------|
G|-------------------4--------------------------4-----------|
D|-------3-----3--------------------3-----3-----------------|
A|----------------2-----3--------------------2-----3--------|
E|--0-2-----2--------------0-2-2-2-----2--------------------|

Riff C                              Fill over Riff C

e|---------------------------------|----------------------12---------|
B|---------------------------------|---------------------------------|
G|---------------------------------|--10-11-13--11--9--11------------|
D|-6-6-6-4--4-4-4--4-4-4-4-4-4-----|---------------------------13----|
A|-4-4-4-0--0-0-1--1-1-2-2-2-2-----|---------------------------------|
E|---------------------------------|---------------------------------|

Repeat Riff B muted twice, loose twice
Verse - Repeat Riff B with second guitar part below

Riff B second guitar part

e|----------------------------------------------------|
B|----------------------------------------------------|
G|------6-----6--------------------6-----6------------|
D|------------------3--2-----------------------3--2---|
A|---------4-----4--------------------4-----4---------|
E|-0-2--------------------0-2-2-2---------------------|

Riff D (4x with Fill D 3rd & 4th times)

e|-------------------------------------------------------------------------|
B|-------------------------------------------------------------------------|
G|-------------------------------------------------------------------------|
D|-7-7-7-7-7-7-7-7-7-7-7-7-7-7-7-7-7-7-7-7-7-7-7-7-7-7-7-7-7-7-7-7-7-7-7-7-|
A|-5-5-5-5-5-5-3-3-3-3-3-3-x-x-x-x-x-x-x-x-x-x-x-x-5-5-5-5-5-5-3-3-3-3-3-3-|
E|-------------------------5-5-5-5-5-5-6-6-6-6-6-6-------------------------|

e|--------------------------|
B|--------------------------|
G|--------------------------|
D|-7-7-7-7-7-7-5-5-5-5-5-5--|
A|-x-x-x-x-x-x-2-2-2-2-2-2--|
E|-5-5-5-5-5-5-3-3-3-3-3-3--|

Fill D (hard to hear exactly, also doubled by a third guitar 1 octave higher)

e|------------------------------------------------------------|
B|-----------------------------------------------------10--8--|
G|-7---7--10-9---7-9-7---5-----5---7---7--10-9---7--5---------|
D|---7----------------------8--------7------------------------|
A|------------------------------------------------------------|
E|------------------------------------------------------------|

Riff E (Chorus)
Repeat Sequence Twice with Fill E 2nd time

e|--------------------------------------------------|
B|--------------------------------------------------|
G|--------------------------------------------------|  2x
D|-4-4-4-4-4-4-4-4-4-4-4-4-4-4-4-4-4-4-4-4-4-4-4-4--|
A|-4-4-4-4-4-4-4-4-4-4-4-4-5-5-5-5-5-5-5-5-5-5-5-5--|
E|-2-2-2-2-2-2-2-2-2-2-2-2-2-2-2-2-2-2-2-2-2-2-2-2--|

e|--------------------------------------------------|
B|--------------------------------------------------|
G|-5-5-5-5-5-5-5-5-5-5-5-5-4-4-4-4-4-4-4-4-4-4-4-4--|  2x
D|-3-3-3-3-3-3-3-3-3-3-3-3-3-3-3-3-3-3-3-3-3-3-3-3--|
A|-3-3-3-3-3-3-3-3-3-3-3-3-3-3-3-3-3-3-3-3-3-3-3-3--|
E|-1-1-1-1-1-1-1-1-1-1-1-1-1-1-1-1-1-1-1-1-1-1-1-1--|

Fill E

e|--------------------------------------------------|
B|--------------------------------------------------|
G|-2-2-2-2-2-2-2-2-2-2-2-2-4-4-4-4-4-4-4-4-4-4-4-4--|  2x
D|-4-4-4-4-4-4-4-4-4-4-4-4-6-6-6-6-6-6-6-6-6-6-6-6--|
A|--------------------------------------------------|
E|--------------------------------------------------|

e|--------------------------------------------------|
B|--------------------------------------------------|
G|-2-2-2-2-2-2-2-2-2-2-2-2-0-0-0-0-0-0-0-0-0-0-0-0--|  2x
D|-3-3-3-3-3-3-3-3-3-3-3-3-0-0-0-0-0-0-0-0-0-0-0-0--|
A|--------------------------------------------------|
E|--------------------------------------------------|

Repeat Riff A with Fill A (second verse)
Repeat Chorus with New Fill E

New Fill E

e|-------2-----------------------2-----------4------|
B|-----2---2-------7---7-------2---2-------7---7----|
G|---2-------2---4---4---4---2-------2---4-------4--|
D|-4-----------6-----------4-----------6------------|
A|--------------------------------------------------|
E|--------------------------------------------------|

e|-------3---------5-3-----------3---------5-3------|
B|-----1---1-----3-----3-------1---1-----3-----3----|
G|---2-------2-4---------4---2-------2-4---------4--|
D|-3-----------5-----------3-----------5------------|
A|--------------------------------------------------|
E|--------------------------------------------------|

Riff F (middle break) with Fill F halfway through 3rd time
and Fill G at end 2nd & 3rd times

e|-------------------------------------------------------------------|
B|-------------------------------------------------------------------|
G|-6-6-6-6-6--6-6-6-6-6--6-6-6-6-6--6-6-6-6-6--4-4-4-4-4--4-4-4-4-4--|
D|-6-6-6-6-6--6-6-6-6-6--5-5-5-5-5--5-5-5-5-5--2-2-2-2-2--2-2-2-2-2--|
A|-4-4-4-4-4--4-4-4-4-4--4-4-4-4-4--4-4-4-4-4--0-0-0-0-0--0-0-0-0-0--|
E|-------------------------------------------------------------------|

e|-------------------------------------------------------------------|
B|-------------------------------------------------------------------|
G|-4-4-4-4-4--4-4-4-4-4--2-2-2-2-2--2-2-2-2-2--2-2-2-2-2--2-2-2-2-2--|
D|-2-2-2-2-2--2-2-2-2-2--0-0-0-0-0--0-0-0-0-0--0-0-0-0-0--0-0-0-0-0--|
A|-0-0-0-0-0--0-0-0-0-0--x-x-x-x-x--x-x-x-x-x--x-x-x-x-x--x-x-x-x-x--|
E|-----------------------3-3-3-3-3--3-3-3-3-3--3-3-3-3-3--3-3-3-3-3--|

e|---------------------------------------------|
B|---------------------------------------------|
G|-4-4-4-4-4--4-4-4-4-4--3-3-3-3-3--3-3-3-3-3--|
D|-2-2-2-2-2--2-2-2-2-2--4-4-4-4-4--4-4-4-4-4--|
A|-2-2-2-2-2--2-2-2-2-2--4-4-4-4-4--4-4-4-4-4--|
E|-0-0-0-0-0--0-0-0-0-0--2-2-2-2-2--2-2-2-2-2--|

Fill F

e|-----------------------|
B|-4-4-7-4-4--4-4-7-4-4--|
G|-4-4-4-4-4--4-4-4-4-4--|
D|-----------------------|
A|-----------------------|
E|-----------------------|

Fill G

e|-----------0--|
B|------0-------|
G|----3----3----|
D|--4-----------|
A|--------------|
E|--------------|

End Fill (long sequence of notes over Riff F)
Visualize and play in 5-note groups, this should make it easier to follow

e|-------------------|
B|----14----12-------|
G|--------------13---|  2x
D|-11----11----------|
A|-------------------|
E|-------------------|

e|-------------------|
B|----14----12-------|
G|--------------12---|  2x
D|-11----11----------|
A|-------------------|
E|-------------------|

e|-------------------|
B|----14----12-------|
G|--------------14---|  5x
D|-11----11----------|
A|-------------------|
E|-------------------|

e|-------------------|
B|----14----12-------|
G|--------------12---|  5x
D|-11----11----------|
A|-------------------|
E|-------------------|

e|-------------------|
B|----14----12-------|
G|--------------13---|  2x
D|-11----11----------|
A|-------------------|
E|-------------------|

e|----------------------------------------------|
B|----12-14-------------------------------------|
G|--------------15----15-----------15------13---| this is the first fill end
D|-11-------11-----11----11-11-11------11-------|
A|----------------------------------------------|
E|----------------------------------------------|

Repeat End Fill Sequence
Then play second fill end in place of first fill end from above

e|------------------|
B|----12-14---------|
G|--------------15--|
D|-11-------11------|
A|------------------|
E|------------------|

============================================================================
            
Submit corrections

comments powered by Disqus
↑ Back to top | Extol Tabs for Grace For Succession. Lyrics for acoustic guitar and electric guitar. 1 Tablatures and chords are parodies/interpretations of the original songs. You may use it for private study, scholarship, research or language learning purposes only