» » »

Emancipation Tabs (ver.3)

Artists:  A B C D E F G H I J K L M N O P Q R S T U V W X Y Z # 

Emancipation Tabs (ver.3)

Extol
Rating:
0/5 (0 votes)

Hard to play? Try these video lessons and learn fast.
                ---------------------------------------------------------------------------
                       "EMANCIPATION" - Extol
---------------------------------------------------------------------------

Tuning: Standard D
Note: Tune your 6th string to D, then tune the rest of the strings the 
normal way. Extol does not tune to dropped D as noted on other tabs.    

I was just way too lazy to tab all the palm mutes, hammers, pulls and 
slides. The parts were challenging enough to figure out. If you can get 
through the song, you are good enough to know how to stylize the notes
and chords to make it sound like the original. Crack your knuckles and get 
to work...Good Luck!

Riff A - Left Guitar - 4x - Verse
e|------------------------------------------------------------------------|
B|------------------------------------------------------------------------|
G|-------7----------------------------------------------7-----------------|
D|-----6----4-0-6-9-0--6---------7----------3--3------6----4-0-6-9-0-6----|
A|-0-6-----------------6---------7----------3--3--0-6----------------6----|
E|---------------------4-0-0-0-0-5-0-0-0-0--1--1---------------------4-0-0|

e|-----------------------|
B|-----------------------|
G|-----------------------|
D|-----7----------3--3---|
A|-----7----------3--3---|
E|-0-0-5-0-0-0-0--1--1---|

Riff A - Right Guitar - 2x
e|------------------------------------------------------------------------|
B|------------------------------------------------------------------------|
G|-------7----------------------------------------------7-----------------|
D|-----6----4-0-6-9-0--6---------7----------3--3------6----4-0-6-9-0-6----|
A|-0-6-----------------6---------7----------3--3--0-6----------------6----|
E|---------------------4-0-0-0-0-5-0-0-0-0--1--1---------------------4-0-0|

e|-----------------------|
B|-------------------0---|
G|----------------5------|
D|-----7-----------------|
A|-----7-----------------|
E|-0-0-5-0-0-0-0---------|

Riff A - Right Guitar - 2x
e|------------------------------------------------------------------------|
B|------------------------------------------------------------------------|
G|-------10--------------------------------------------10-----------------|
D|-----9----7-0-9-12-0-6---------7----------3--3-----9----7-0-9-12-0-6----|
A|-0-9-----------------6---------7----------3--3-0-9-----------------6----|
E|---------------------4-0-0-0-0-5-0-0-0-0--1--1---------------------4-0-0|

e|-----------------------|
B|-------------------0---|
G|----------------5------|
D|-----7-----------------|
A|-----7-----------------|
E|-0-0-5-0-0-0-0---------|

Riff B - Both - Clean Tone
e|---------------------------1---------0--|
B|-------2------3---5-----1----------4----|
G|-----2------2---2---2---3--------4------|
D|---0--------------------3---------------|
A|----------2-------------1------4--------|
E|-3--------------------------------------|

Repeat Riff B - Both - Distortion - Chorus

Riff C - Both - 4x
e|--------------------------------------------|
B|--------------------------------------------|
G|-----------------------------------------6--|
D|-------7-----------9--------10--------6-----|
A|----5-----------9--------8---------4--------|
E|-3--------5--7--------6---------0-----------|

Repeat Riff C - Right Guitar with Riff D on Left Guitar

Riff D - 4x
e|----------------------------------------------|
B|----------------------------------------------|
G|-------9-----------11-------12-------------13-|
D|----7-----------11-------10------------13-----|
A|-5--------7--9--------8------------11---------|
E|--------------------------------0-------------|

Riff E - 2x
e|-----------------------0-----------------0------------------------------|
B|---------------------0-----------------6----3-------------3-3-3--4------|
G|-------------------5-----------------7------3-------------3-3-3--3------|
D|-----------------6-----------------------------------------------3------|
A|-0-0-0-0-0-0-0-0---------4-4-4-4-4-4----------3-3-3-3-3-3-----3---------|
E|-------------------------------------------------------------------4-4-4|

e|-----------------------------------0-----------------0--------0--------0|
B|-------4-4-4---------------------0-----------------6--------0--------0--|
G|-------3-3-3-------------------5-----------------7--------3--------2----|
D|-------3-3-3-----------------6--------------------------4--------3------|
A|-------------0-0-0-0-0-0-0-0---------4-4-4-4-4-4--------4--------3------|
E|-4-4-4--------------------------------------------------2--------1------|

Repeat Riff A
Repeat Riff C with Different Left Guitar Part

Riff C Different Left Guitar Part
e|--------------------------------------------|
B|--------------------------------------------|
G|------------------------------------------9-|
D|-------10----------12--------13---------9---|
A|----8-----------12--------11---------7------|
E|-6--------8--10--------9---------0----------|

Repeat Riff B - Both - Distortion - Chorus

End Chords
e|-1---1--1---1--1---1---1---|
B|-1---1--1---1--1---1---1---|
G|-3---3--3---3--3---3---3---|
D|-3---3--3---3--3---3---3---|
A|-1---1--1---1--1---1---1---|
E|---------------------------|


| /  slide up
| \  slide down
| h  hammer-on
| p  pull-off
| ~  vibrato
| +  harmonic
| x  Mute note
===========================================================================
            
Hard to play? Try these video lessons and learn fast. | Correct




comments powered by Disqus
↑ Back to top | Tablatures and chords are parodies/interpretations of the original songs. You may use it for private study, scholarship, research or language learning purposes only