» » »

Extol, Emancipation Tabs (ver.1)

Artists:  A B C D E F G H I J K L M N O P Q R S T U V W X Y Z # 

Emancipation Tabs (ver.1)

Extol Tabs
 Rating:
3.7/5 (6 votes)
Emancipation lessons Tabs too difficult? Try these video lessons and learn fast
                
Intro/Verse Riff 1         
D|------------------------4--4444--5--5555-2-2-----------|
A|-0h6h9-----0h3h6---6----4--4444--5--5555-2-2-----------|
D|-------10--------7------4--4444--5--5555-2-2-----------|
G|-------------------------------------------------------|
B|-------------------------------------------------------|
e|-------------------------------------------------------|
                             ....     .... . .
  Riff 2                         alternate between riff 1&2(4x)
D|------------------------4--4444--5--5555---------------|
A|-0h6h9-----0h3h6---6----4--4444--5--5555---------------|
D|-------10--------7------4--4444--5--5555--- let ring---|
G|-------------------------------------------3-2---------|
B|-------------------------------------------------------|
e|-------------------------------------------------------|

harmony to Riff 1&2 harmony comes in after Riff 1&2 have alt. twice
D|------------------------4--4444--5--5555-2-2-----------|
A|-0h9h12-----0h6h9--9----4--4444--5--5555-2-2-----------|
D|-------13--------10-----4--4444--5--5555-2-2-----------|
G|-------------------------------------------------------|
B|-------------------------------------------------------|
e|-------------------------------------------------------|
                             ....     .... . .
 Chorus Riff 3
D|-------------------------------------------------------|
A|-0----3-----6-6-6--5-----------------------------------|
D|--2----2-2--8-8-8---7----------------------------------|play(4x)clean
G|---0----0---8-8-8----6-7-------------------------------|then
B|----0-----3--------------------------------------------|play(4x)w/dist.
e|-------------------------------------------------------|

  Riff 4
D|-3---3-5---6---6-7-------------------------------------|
A|--3-----5---6-----7------------------------------------|
D|---5-----7---8-----9-----------------------------------|
G|-------------------------------------------------------|play(8x)
B|-------------------------------------------------------|
e|-------------------------------------------------------|
   ..  . ..  ..  . ..
  Riff 5
D|-5-5-5-5-5-5-5-5------9-9-9-9-9---------------------|
A|-5-5-5-5-5-5-5-5------9-9-9-9-9---------------------|
D|-----------------4--------------9-------------------|
G|------------------3-2------------8-7----------------|
B|----------------------------------------------------|
e|----------------------------------------------------|
   . . . . . . . .      . . . . .   
  Riff 5(cont.)
D|-6-6-6-6-6-6-6--6-6-6--4-4-4-4-4-4-4--4-4-4----------|
A|-6-6-6-6-6-6-6--6-6-6--4-4-4-4-4-4-4--4-4-4----------|
D|-8--------------8-8-8--6--------------6-6-6----------|
G|-8--------------8-8-8--6--------------6-6-6----------|
B|-----------------------------------------------------|
e|-----------------------------------------------------|
     . . . . . .           . . . . . .
  Riff 6
D|-5-5-5-5-5-5-5-5------9-9-9-9-9----------2----1-----|
A|-5-5-5-5-5-5-5-5------9-9-9-9-9-----------2----1----|
D|-----------------4-----------------9-------2----1---|alt. between
G|------------------3-2---------------8-7-------------|Riff 5&6(2x)
B|---------------------------------------------3----3-|
e|----------------------------------------------------|
   . . . . . . . .      . . . . .                   

After alternating between Riff 5&6 twice
do Riff 1&2(8x)then
do Riff 4(x8)then
do Riff 3(x8)w/distortion

.=palm mute
h=hammer-on
            
Submit corrections

comments powered by Disqus
↑ Back to top | Extol Tabs for Emancipation. Lyrics for acoustic guitar and electric guitar. Tablatures and chords are parodies/interpretations of the original songs. You may use it for private study, scholarship, research or language learning purposes only