» » »

Weights Bass tabs (ver.1)

Artists:  A B C D E F G H I J K L M N O P Q R S T U V W X Y Z # 

Weights Bass tabs (ver.1)

Everything Everything
Rating:
0/5 (0 votes)

Hard to play? Try these video lessons and learn fast.
                



All tabs by Pedro Zappa
-----------------------------------------------------------------------------
-----------------------------------------------------------------------------


12. Weights


Verse 1

(wait)
 
   4/4
G||--------------------|
D||--------------------|
A||--------------------|
E||-7\-----------------|
    i    i    i    i 

(wait)

G||--------------------|--------------------|--------------------|
D||--------------------|--------------------|--------------------|
A||----5--5-5----5--5-5|---5-----5--5-5---5-|----5--5------------|
E||--------------------|--------------------|---------7----7--7--|
    i    i    i    i     i    i    i    i     i    i    i    i
G||--------------------|--------------------|--------------------||
D||--------------------|--------------------|--------------------||
A||----5--5-5----5--5-5|---5-----5--5-5---5-|----5--5--5---------||
E||--------------------|--------------------|-----------7--7--7--||
    i    i    i    i     i    i    i    i     i    i    i    i
G||--------------------|--------------------|--------------------||  x2
D||--------------------|--------------------|--------------------||
A||----5--5-5----5--5-5|---5-----5--5-5---5-|----5--5------------||
E||--------------------|--------------------|---------7----7--7--||
    i    i    i    i     i    i    i    i     i    i    i    i

(wait)

G||--------------------|--------------------|--------------------||  x2
D||--------------------|--------------------|--------------------||
A||----5--5-5----5--5-5|---5-----5--5-5---5-|----5--5------------||
E||--------------------|--------------------|---------7----7--7--||
    i    i    i    i     i    i    i    i     i    i    i    i
G||--------------------|--------------------|--------------------|
D||--------------------|--------------------|--------------------|
A||----5--5-5----5--x55|---5-----5--5-5---5-|----5--5------------|
E||--------------------|--------------------|---------7----7--7--|
    i    i    i    i     i    i    i    i     i    i    i    i
G||--------------------|--------------------|--------------------|
D||--------------------|--------------------|--------------------|
A||----5--5-5----5--5-5|---5-----5--5-5---5-|----5--5------------|
E||--------------------|--------------------|-----------7p5--4\2-|
    i    i    i    i     i    i    i    i     i    i    i    i

Chorus 1

G||--------------------|--------------------|--------------------|
D||--------------------|--------------------|--------------------|
A||--------------------|--------------------|--------------------|
E||-3-3--3-3--3-3--3-3-|-2-2--2-2--5-5--5-5-|-5-5--5-5--7-5--7---|
    i    i    i    i     i    i    i    i     i    i    i    i
G||--------------------|--------------------|--------------------|
D||--------------------|--------------------|--------------------|
A||--------------------|--------------------|--------------------|
E||-8-8--8-8--8-8--8-8-|-7-7--7-7--5-5--5-5-|-5-0--5-7--8-8--8-8-|
    i    i    i    i     i    i    i    i     i    i    i    i
G||--------------------|--------------------|--------------------|
D||--------------------|------7-9-----------|--------------------|
A||--------9-----------|--------------------|--------------------|
E||-8-5--8----7--------|-----------8-8--8-8-|-8-8--8-8--7-7--7-7-|
    i    i    i    i     i    i    i    i     i    i    i    i
G||--------------------|--------------------|
D||-----------7-7------|--------------------|
A||--------7-------7---|--------------------|
E||-5-5--5-----------5-|--------------------|
    i    i    i    i     i    i    i    i     

Verse 2

(wait)

G||--------------------|
D||--------------------|
A||--------------------|
E||-7\-----------------|
    i    i    i    i 

(wait) 

G||--------------------|--------------------|--------------------|
D||--------------------|--------------------|--------------------|
A||----5--5-5----5--5-5|---5-----5--5-5---5-|----5--5------------|
E||--------------------|--------------------|---------7----7--7--|
    i    i    i    i     i    i    i    i     i    i    i    i
G||--------------------|--------------------|--------------------|
D||--------------------|--------------------|--------------------|
A||----5--5-5----5--5-5|---5-----5--5-5---5-|----5--5--5---------|
E||--------------------|--------------------|-----------7--7--7--|
    i    i    i    i     i    i    i    i     i    i    i    i
G||--------------------|--------------------|--------------------|
D||--------------------|--------------------|----------/9p7--7---|
A||----5--5-5----5--5-5|---5-----5--5-5---5-|----5--5----------9-|
E||--------------------|--------------------|--------------------|
    i    i    i    i     i    i    i    i     i    i    i    i

Chorus 2

G||--------------------|--------------------|--------------------|
D||--------------------|--------------------|--------------------|
A||--------------------|--------------------|--------------------|
E||-3-3--3-3--3-3--3-3-|-2-0--2-3--5-5--5-5-|-5-5--5-5--7-5--7-7-|
    i    i    i    i     i    i    i    i     i    i    i    i
G||--------------------|--------------------|--------------------|
D||--------------------|--------------------|--------------------|
A||--------------------|--------------------|--------------------|
E||-8-8--8-8--8-8--8-8-|-7-7--7-7--5-5--5-5-|-5-0--5-7--8-8--8-8-|
    i    i    i    i     i    i    i    i     i    i    i    i
G||----------------12-11-|--------------------|--------------------|
D||----------------------|-12---7-9-----------|--------------------|
A||--------9-------------|--------------------|--------------------|
E||-8-5--8----7----------|-----------8-8--8-8-|-8-8--8-8--7-7--7-7-|
    i    i    i    i       i    i    i    i     i    i    i    i
G||--------------------|--------------------|
D||-----------7-7------|--------------------|
A||--------7-------7---|--------------------|
E||-5-5--5-----------5-|--------------------|
    i    i    i    i     i    i    i    i    

Outro

(wait) "I know how it ends…"

   4/4
G||--------------------|--------------------|--------------------|
D||--------------------|--------------------|--------------------|
A||--------------------|--------------------|--------------------|
E||--------------------|--------------------|--------------------|
    i    i    i    i     i    i    i    i     i    i    i    i
   7/8
G||----------------------|
D||----------------------|
A||----------------------|
E||----------------------|
    i ˆ  i ˆ  i ˆ  i ^ ^  
   4/4                  5/4
G||--------------------|-------------------------|
D||-10---------------11|----------------12\------|
A||--------------------|-------------------------|
E||--------------------|---------------------2---|
    i    i    i    i     i    i    i    i    i    

---
   4/4                         
G||--------------------|--------------------|
D||--------------------|--------------------|
A||--------------------|---4-------5--------|
E||-3------5-------7---|----------------2---|
    i    i    i    i     i    i    i    i 
   5/4
G||-------------------------|
D||-------------------------|
A||----------------5--------|
E||-3------5----7-------2---|
    i    i    i    i    i  
   4/4   
G||--------------------|--------------------|--------------------|
D||--------------------|--------------------|--------------------|
A||--------------------|--------------------|--------------------|
E||-3------5-------7---|---8----------------|-9--------------2---|
    i    i    i    i     i    i    i    i     i    i    i    i

---
   4/4                         
G||--------------------|--------------------|
D||--------------------|--------------------|
A||--------------------|---4-------5--------|
E||-3------5-------7---|----------------2---|
    i    i    i    i     i    i    i    i 
   5/4
G||-------------------------|
D||-------------------------|
A||----------------5--------|
E||-3------5----7-------2---|
    i    i    i    i    i  
   4/4                  4/3       
G||--------------------|---------------|
D||--------------------|---------------|
A||--------------------|---5-----------|
E||-3------5-------7---|-----------2---|
    i    i    i    i     i    i    i     
   4/4                                                
G||--------------------|--------------------|
D||--------------------|--------------------|
A||--------------------|---4-------5----7-9-|
E||-3------5----3--7---|-5------5-----------|
    i    i    i    i     i    i    i    i  

---
   4/4
G||--------------------|--------------------|--------------------|
D||--------------------|--------------------|--------------------|
A||-10-----------------|--------------------|-----------5--------|
E||--------5-------7---|--/10------2----3---|---5----7-------0-2-|
    i    i    i    i     i    i    i    i     i    i    i    i
   7/8
G||----------------------|
D||----------------------|
A||--------7-------5-----|
E||-3--------------------|
    i ˆ  i ˆ  i ˆ  i ^ ^  
   4/4                  5/4
G||--------------------|-------------------------|
D||--------------------|-------------------------|
A||-3----------------4-|----------------5--------|
E||--------------------|---------------------2---|
    i    i    i    i     i    i    i    i    i   

-2-
   4/4                         
G||--------------------|--------------------|
D||--------------------|--------------------|
A||-10-----------------|---4-------5----7-9-|
E||--------5-------7---|--------------------|
    i    i    i    i     i    i    i    i 
   5/4
G||-------------------------|
D||-------------------------|
A||-10-------------5----9---|
E||--------5----7-----------|
    i    i    i    i    i  
   4/4   
G||--------------------|--------------------|--------------------|
D||--------------------|--------------------|--------------------|
A||-10-----7-------5---|--------------------|--------------------|
E||--------------------|---8----------------|-9--------------2---|
    i    i    i    i     i    i    i    i     i    i    i    i
---
   4/4                         
G||--------------------|--------------------|
D||--------------------|--------------------|
A||--------------------|---4-------5--------|
E||-3------5-------7---|----------------2---|
    i    i    i    i     i    i    i    i 
   5/4
G||-------------------------|
D||-------------------------|
A||----------------5--------|
E||-3------5----7-------2---|
    i    i    i    i    i  
   4/4                  4/3       
G||--------------------|---------------|
D||--------------------|---------------|
A||--------------------|---5-----------|
E||-3------5-------7---|-----------2---|
    i    i    i    i     i    i    i     
   4/4                                                
G||--------------------|--------------------|
D||--------------------|--------------------|
A||--------------------|---4-------5----7-9-|
E||-3------5----3--7---|-5------5-----------|
    i    i    i    i     i    i    i    i  
---
   4/4
G||--------------------|--------------------|--------------------|
D||--------------------|--------------------|--------------------|
A||-10-----------------|--------------------|-----------5--------|
E||--------5-------7---|--/10------2----3---|---5----7-------0-2-|
    i    i    i    i     i    i    i    i     i    i    i    i
   7/8
G||----------------------|
D||----------------------|
A||----------------2-----|
E||-3------5-------------|
    i ˆ  i ˆ  i ˆ  i ^ ^  
   4/4                  5/4
G||--------------------|-------------------------|
D||--------------------|-------------------------|
A||-3----------------4-|-------------------------|
E||--------------------|-------------------------|
    i    i    i    i     i    i    i    i    i   


-----------------------------------------------------------------------------
-----------------------------------------------------------------------------
            
Hard to play? Try these video lessons and learn fast. | Correct




comments powered by Disqus
↑ Back to top | Tablatures and chords are parodies/interpretations of the original songs. You may use it for private study, scholarship, research or language learning purposes only