>
 >
Qwerty Finger

Qwerty Finger Bass Tabs

Everything Everything - Qwerty Finger chords, tabs, tablatures, lyrics

Guitar lessons | Add/correct | Request | Top 50 tabs Artists:  A B C D E F G H I J K L M N O P Q R S T U V W X Y Z 0-9

Qwerty Finger Bass Tabs – Everything Everything

CD, Sheet music, Poster

Do you like Qwerty Finger? Share with your friends now
Bass Tabs




All tabs by Pedro Zappa
-----------------------------------------------------------------------------
-----------------------------------------------------------------------------


2. Qwerty Finger


Intro

G||--------------------|--------------------|
D||--------------------|--------------------|
A||--------------------|------------------7-|
E||--------------------|--------------------|
    i    i    i    i     i    i    i    i
G||--------------------|--------------------|
D||--------------------|--------------------|
A||---9--9-9--9-7----7-|---9--9-9--9-7----7-|
E||--------------------|--------------------|
    i    i    i    i     i    i    i    i
G||--------------------|--------------------|
D||--------------------|--------------------|
A||---9--9-9--9-7----7-|---9--9-7--9-9--7-9-|
E||--------------------|--------------------|
    i    i    i    i     i    i    i    i
G||--------------------|--------------------|
D||--------------------|--------------------|
A||---7--9-9--9-7----7-|---9--9-9--9-7----7-|
E||--------------------|--------------------|
    i    i    i    i     i    i    i    i
G||--------------------|--------------------|
D||--------------------|--------------------|
A||---9--9-9--9-7----7-|---9--9-7--7-7--7-7-|
E||--------------------|--------------------|
    i    i    i    i     i    i    i    i

Verse 1 

G||--------------------|--------------------|
D||--------------------|--------------------|
A||---7--9-9--9-7----7-|---9--9-9--9-7----7-|
E||--------------------|--------------------|
    i    i    i    i     i    i    i    i
G||--------------------|--------------------||  X2
D||--------------------|--------------------||
A||---9--9-9--9-7----7-|---9--9-9--9-7----7-||
E||--------------------|--------------------||
    i    i    i    i     i    i    i    i
G||--------------------|-----------9-9--9-9-|
D||--------------------|--------------------|
A||---9--9-9--9-7----7-|---9--9-7-----------|
E||--------------------|--------------------|
    i    i    i    i     i    i    i    i

G||--------------------|--------------------|
D||--------------------|--------------------|
A||---7--9-9--9-7----7-|---9--9-9--9-7----7-|
E||--------------------|--------------------|
    i    i    i    i     i    i    i    i
G||--------------------|--------------------|
D||--------------------|--------------------|
A||---9--9-9--9-7----7-|---9--9-7--9-9--7-9-|
E||--------------------|--------------------|
    i    i    i    i     i    i    i    i
G||--------------------|--------------------|
D||--------------------|--------------------|
A||---7--9-9--9-7----7-|---9--9-9--9-7----7-|
E||--------------------|--------------------|
    i    i    i    i     i    i    i    i
G||--------------------|--------------------||
D||--------------------|--------------------||
A||---9--9-9--9-7----7-|---9--0-------------||
E||--------------------|-----------2--------||
    i    i    i    i     i    i    i    i

Chorus 1

G||--------------------|--------------------|
D||-7-7--7-7----9------|--------------------|
A||--------------------|-5-5--5-5-------7---|
E||----------------8---|-------------8------|
    i    i    i    i     i    i    i    i
G||--------------------|--------------------|
D||--------------------|-----------6-5--6---|
A||-8-8--8-8--7--------|-8-7--8-------------|
E||-------------8--5---|--------------------|
    i    i    i    i     i    i    i    i      
G||--------------------|--------------------|
D||-7-7--7-7--7-9------|--------------------|
A||--------------------|-5-5--5-5-------7---|
E||----------------8---|-------------8------|
    i    i    i    i     i    i    i    i
G||--------------------|--------------------|
D||--------------------|-----------6-5--6---|
A||-8-8--8-8--7--------|-8-7--8-8-----------|
E||-------------8--5-5-|--------------------|
    i    i    i    i     i    i    i    i 
---

G||--------------------|--------------------|
D||-7-7----------------|-5-5----------------|
A||------7-7-----------|------8-8--7-5------|
E||-----------8-7--5---|----------------8---|
    i    i    i    i     i    i    i    i 
G||--------------------|--------------------|
D||--------------------|-----------6-5--6---|
A||-8-8--8-8--7--------|-8-7--8-8-----------|
E||-------------8--5---|--------------------|
    i    i    i    i     i    i    i    i 
G||--------------------|--------------------|
D||-7-7--7-7--7-9------|--------------------|
A||--------------------|-5-5--5-5-------7---|
E||----------------8---|-------------8------|
    i    i    i    i     i    i    i    i
G||--------------------|-----------9--------|
D||--------------------|------7-------------|
A||---8--7-7--5-5----7/|-8-8----8---------7-|
E||----------------8---|--------------------|
    i    i    i    i     i    i    i    i 

Interlude

G||--------------------|--------------------|
D||--------------------|--------------------|
A||---9--9-9--9-7----7-|---9--9-9--9-7----7-|
E||--------------------|--------------------|
    i    i    i    i     i    i    i    i
G||--------------------|--------------------|
D||--------------------|--------------------|
A||---9--9-9--9-7----7-|---9--9-7--9-9--7-9-|
E||--------------------|--------------------|
    i    i    i    i     i    i    i    i
G||--------------------|--------------------|
D||--------------------|--------------------|
A||---7--9-9--9-7----7-|---9--9-9--9-7----7-|
E||--------------------|--------------------|
    i    i    i    i     i    i    i    i
G||--------------------|-----------9-9--9---|
D||--------------------|--------------------|
A||---9--9-9--9-7----7-|---9--9-7-----------|
E||--------------------|------------------0-|
    i    i    i    i     i    i    i    i

Verse 2

G||--------------------|--------------------||  x3
D||--------------------|--------------------||
A||--------------------|--------------------||
E||---2--2-2--2-0----0-|---2--2-2--2-0----0-||
    i    i    i    i     i    i    i    i
G||--------------------|--------------------|
D||--------------------|--------------------|
A||--------------------|-----------7----7-7-|
E||---2--2-2--2-0----0-|---2--2-0----0------|
    i    i    i    i     i    i    i    i
---

G||--------------------|--------------------|
D||--------------------|--------------------|
A||---9--9-9--9-7----7-|---9--9-9--9-7----7-|
E||--------------------|--------------------|
    i    i    i    i     i    i    i    i
G||--------------------|--------------------|
D||--------------------|--------------------|
A||---9--9-9--9-7----7-|---9--9-7--9-9--7-9-|
E||--------------------|--------------------|
    i    i    i    i     i    i    i    i
G||--------------------|--------------------|
D||--------------------|--------------------|
A||---7--9-9--9-7----7-|---9--9-9--9-7----7-|
E||--------------------|--------------------|
    i    i    i    i     i    i    i    i
G||--------------------|--------------------||
D||--------------------|--------------------||
A||---9--9-9--9-7----7-|---9--0-------------||
E||--------------------|-----------2--------||
    i    i    i    i     i    i    i    i

Chorus 2

G||--------------------|--------------------|
D||-7-7--7-7----9------|--------------------|
A||--------------------|-5-5--5-5-------7---|
E||----------------8---|-------------8------|
    i    i    i    i     i    i    i    i
G||--------------------|--------------------|
D||--------------------|-----------6-5--6---|
A||-8-8--8-8--7--------|-8-7--8-------------|
E||-------------8--5---|--------------------|
    i    i    i    i     i    i    i    i      
G||--------------------|--------------------|
D||-7-7--7-7--7-9------|--------------------|
A||--------------------|-5-5--5-5-------7---|
E||----------------8---|-------------8------|
    i    i    i    i     i    i    i    i
G||--------------------|--------------------|
D||--------------------|-----------6-5--6---|
A||-8-8--8-8--7--------|-8-7--8-8-----------|
E||-------------8--5-5-|--------------------|
    i    i    i    i     i    i    i    i 
---

G||--------------------|--------------------|
D||-7-7----------------|-5-5----------------|
A||--------7-----------|------8-8--7-5------|
E||-----------8-7--5---|----------------8---|
    i    i    i    i     i    i    i    i 
G||--------------------|--------------------|
D||--------------------|-----------6-5--6---|
A||-8-8--8-8--7--------|-8-7--8-8-----------|
E||-------------8--5---|--------------------|
    i    i    i    i     i    i    i    i 
G||--------------------|--------------------|
D||-7-7--7-7--7-9------|--------------------|
A||--------------------|-5-5--5-5-------7---|
E||----------------8---|-------------8------|
    i    i    i    i     i    i    i    i
G||--------------------|-----------9--------|
D||--------------------|------7-------------|
A||-8-8--7-7--5-5----8-|---8----8-----------|
E||----------------8---|--------------------|
    i    i    i    i     i    i    i    i 

Bridge

(wait)

G||--------------------|--------------------|
D||--------------------|--------------------|
A||--------------------|-----------0-2--4-5-|
E||--------------------|--------------------|
    i    i    i    i     i    i    i    i
G||--------------------|--------------------|
D||--------------------|--------------------|
A||-----------5----5-4-|-----------4----4-7-|
E||--------------------|--------------------|
    i    i    i    i     i    i    i    i
G||--------------------|--------------------|
D||--------------------|--------------------|
A||-----------7----7-9-|-----------9-7--4-5-|
E||--------------------|--------------------|
    i    i    i    i     i    i    i    i
G||--------------------|--------------------|
D||--------------------|--------------------|
A||-----------5----5-4-|-----------4----4-7-|
E||--------------------|--------------------|
    i    i    i    i     i    i    i    i
G||------9-------------|--------------------|
D||--------------------|------7-------------|
A||-----------7----7-9-|---9----9--7-2--4-5-|
E||--------------------|--------------------|
    i    i    i    i     i    i    i    i
---

G||--------------------|--------------------|
D||--------------------|--------------------|
A||------5----5----5-4-|------4----4----4-0-|
E||--------------------|--------------------|
    i    i    i    i     i    i    i    i
G||--------------------|--------------------|
D||--------------------|--------------------|
A||------0----0----0-9-|------9----9-7--4-5-|
E||--------------------|--------------------|
    i    i    i    i     i    i    i    i
G||--------------------|--------------------|
D||--------------------|--------------------|
A||------5----5----5-4-|------4----4----4-0-|
E||--------------------|--------------------|
    i    i    i    i     i    i    i    i
G||--------------------|--------------------|
D||--------------------|--------------------|
A||------0----0----0-7-|---9--9-9--9-2--4-5-|
E||--------------------|--------------------|
    i    i    i    i     i    i    i    i
---

G||--------------------|--------------------|
D||------7-------------|--------------------|
A||---5----5--5-5--5-4-|---4--4-4--4-4--4-0-|
E||--------------------|--------------------|
    i    i    i    i     i    i    i    i
G||--------------------|--------------------||
D||--------------------|--------------------||
A||---0--0-0--0-0--0-7-|---9--9-9--9-2--4-5-||
E||--------------------|--------------------||
    i    i    i    i     i    i    i    i
---

G||--------------------|--------------------|
D||------7-------------|--------------------|
A||---5----5--5-5--5-4-|---4--4-4--4-4--4-0-|
E||--------------------|--------------------|
    i    i    i    i     i    i    i    i
G||--------------------|--------------------||  x3
D||--------------------|------7-------------||
A||---0--0-0--0-0--0-7-|---9----9--7-2--4-5-||
E||--------------------|--------------------||
    i    i    i    i     i    i    i    i
---

G||--------------------|--------------------|
D||--------------------|--------------------|
A||---5--5-5--5-5--5-4-|---4--4-4--4-4--4-0-|
E||--------------------|--------------------|
    i    i    i    i     i    i    i    i
G||--------------------|--------------------||
D||--------------------|--------------------||
A||---0--0-0--0-0--0---|-------------2--4-5-||
E||------------------2-|---2--2-2--2--------||
    i    i    i    i     i    i    i    i
G||--------------------|--------------------|
D||--------------------|--------------------|
A||---5--5-5--5-5--5-4-|---4--4-4--4-4--4-0-|
E||--------------------|--------------------|
    i    i    i    i     i    i    i    i
G||--------------------|--------------------||
D||--------------------|--------------------||
A||---0--0-0--0-0--0---|--------------------||
E||------------------2-|---2----2----2----2-||
    i    i    i    i     i    i    i    i

Outro

G||--------------------|--------------------|
D||--------------------|--------------------|
A||---9--9-9--9-7----7-|---9--9-9--9-7----7-|
E||--------------------|--------------------|
    i    i    i    i     i    i    i    i
G||--------------------|--------------------|
D||--------------------|--------------------|
A||---9--9-9--9-7----7-|---9--9-7--9-9--7-9-|
E||--------------------|--------------------|
    i    i    i    i     i    i    i    i
G||--------------------|--------------------|
D||--------------------|--------------------|
A||---7--9-9--9-7----7-|---9--9-9--9-7----7-|
E||--------------------|--------------------|
    i    i    i    i     i    i    i    i
G||--------------------|-----------9-9--8-9-|
D||--------------------|--------------------|
A||---9--9-9--9-7----7-|---9--9-7-----------|
E||--------------------|--------------------|
    i    i    i    i     i    i    i    i

(wait)

G||------2-1-----------||
D||--------------------||
A||--------------------||
E||-----------2--------||
    i    i    i    i   


-----------------------------------------------------------------------------
-----------------------------------------------------------------------------





Comments


Popular Everything Everything tabs & chords
Nasa Is On Your Side Bass Tabs
Photoshop Handsome Bass Tabs
Photoshop Handsome 1 Bass Tabs
Schoolin 1 Bass Tabs
Suffragette Suffragette Bass Tabs
Dont Try Chords
Kemosabe Chords
Kemosabe 2 Chords
Photoshop Handsome 2 Chords
Torso Of The Week Tabs


Song lyrics



↑ Back to top | Tablatures and chords are parodies/interpretations of the original songs. You may use it for private study, scholarship, research or language learning purposes only
© 2014 AZChords.com Contact us | Privacy policy | DMCA | Add/correct tabs | Request tabs | Top 50 tabs