» » »

Erik Santos, Kung Akin Ang Mundo Tabs (ver.3)

Artists:  A B C D E F G H I J K L M N O P Q R S T U V W X Y Z # 

Kung Akin Ang Mundo Tabs (ver.3)

Erik Santos Tabs
 Rating:
4.5/5 (8 votes)
Kung Akin Ang Mundo lessons Tabs too difficult? Try these video lessons and learn fast
                Intro:

[---4---5---4---5---4---5---7-]  2x
[-----------------------------]
[-----------------------------]
[-----------------------------]
[---4-4---4---4---4---4---4---]
[-----------------------------]

[--------------------4--5--7---x-]
[--8--7--5--3--5---------------x-]
[------------------------------1-]
[--7--6--4--2------------------2-]
[------------------------------2-]
[-----------------0------------0-]


1st stanza:

AM7              DM7
kung ako ang may ari ng mundo

AM7          DM7
ibibigay ang lahat ng gusto mo

Bm7             AM7
araw araw pasisikatin ang araw

Bm7              AM7           A7
buwan buwan pabibilugin ko ang buwan

     Bm7          E - E7
para sayo... para sayo


Chorus:

    DM7
susungkitin mga bituwin

      C#m7
para lang maka hiling

        Bm7
na sana'y maging akin

     AM7        A7
puso mo at damdamin

     DM7
kung pwede lang kung kaya lang

     C#m7
kung akin ang mundo

Bm7
ang lahat ng ito

AM7-E
iaalay ko sayo


(Repeat Intro)
(2nd stanza same chords as 1st stanza)


kung ako ang hari ng puso
lagi kitang pababantay kay kupido
hindi na luluha ang iyong mga mata
mananatling may ngiti sa iyong labi
para sayo... para sayo


(Repeat Chorus)

(di ko alam ung interlude coming pa lang)

(Finishing Chorus with 1 step higher notes)
            
Submit corrections

comments powered by Disqus
↑ Back to top | Erik Santos Tabs for Kung Akin Ang Mundo. Lyrics for acoustic guitar and electric guitar. Tablatures and chords are parodies/interpretations of the original songs. You may use it for private study, scholarship, research or language learning purposes only