>
 >
Layla 4

Layla 4 Guitar Tabs

Eric Clapton - Layla 4 chords, tabs, tablatures, lyrics

Guitar lessons | Add/correct | Request | Top 50 tabs Artists:  A B C D E F G H I J K L M N O P Q R S T U V W X Y Z 0-9

Layla 4 Guitar Tabs – Eric Clapton

CD, Sheet music, Poster

Do you like Layla 4? Share with your friends now
Bass TabsBass Tabs v2Bass Tabs v3ChordsChords v2Chords v3Chords v4Chords v5Chords v6Drum TabsTabsTabs v2Tabs v11Tabs v12Tabs v3Tabs v4Tabs v5Tabs v6Tabs v7Tabs v8UkuleleUkulele v2

Words and Music by Eric Clapton & Jim Gordon

Gtr I (E A D G B E) - 'Lead'
Gtr II (E A D G B E) - 'Rhythm'

Intro
  Q=117
 4/4
  Gtr I
                          ~
  H    E S  S S  S S  S   W
|-----------------------|-------------------|
|-----------------------|-------------------|
|-------------7h10p7----|-7-----------------|
|--------7h10--------10-|-------------------|
|-----------------------|-------------------|
|-----------------------|-------------------|
|
| Gtr II
| H    E S  S S  S S  S   E E E E +E  E E E
|-----------------------|-------------------|
|-----------------------|-------------------|
|-------------0h=3p0----|-------------------|
|--------0h=3---------3-|-0-7S5-3-(3)-3---5-|
|-----------------------|---5S3-1-(1)-0---3-|
|-----------------------|---------------3---|


                                 ~
  +H         E  S  S S  S S  S   W
|------------------------------|--------------------|
|------------------------------|--------------------|
|-(7)----------------7h10p7----|-7------------------|
|---------------7h10--------10-|--------------------|
|------------------------------|--------------------|
|------------------------------|--------------------|
|
| +E  E E E +E  S  S S  S S  S   E E E E +E  E E E
|------------------------------|--------------------|
|------------------------------|--------------------|
|------------------------------|--------------------|
|-(5)-5---7-(7)------0h=3p0----|-0-7S5-3-(3)-3---5--|
|-(3)-0---5-(5)-0h=3---------3-|---5S3-1-(1)-0---3--|
|-------3----------------------|---------------3----|


                                     ~~~                      ~~~~~~~
  +H         E   S  S  S  S  S  S    Q.      a      +E   +E   Q    E
|---------------------10h13p10----|-10------13b15==(13)-(13)-13---12-|
|---------------10h13----------13-|----------------------------------|
|-(7)-----------------------------|----------------------------------|
|---------------------------------|----------------------------------|
|---------------------------------|----------------------------------|
|---------------------------------|----------------------------------|
|
| +E  E E E +E   S  S  S  S  S  S    E  E E          E   +E   E E  E
|---------------------------------|----------------------------------|
|---------------------------------|----------------------------------|
|---------------------------------|----------------------------------|
|-(5)-5---7-(7)--------0h=3p=0----|--0--7S5----------3---(3)--3----5-|
|-(3)-0---5-(5)--0h=3-----------3-|-----5S3----------1---(1)--0----3-|
|-------3-------------------------|-----------------------------3----|


             ~~
   +E   Q    E  +E   S  S  S  S  S  S
|-(12)------10-(10)-------10h13p10----|
|------13-----------10h13----------13-|
|-------------------------------------|
|-------------------------------------|
|-------------------------------------|
|-------------------------------------|
|
|  +E   E E  E  +E   S  S  S  S  S  S
|-------------------------------------|
|-------------------------------------|
|-------------------------------------|
|--(5)--5----7--(7)--------0h=3p=0----|
|--(3)--0----5--(5)--0h=3-----------3-|
|---------3---------------------------|


                            ~~~~~~~
   Q.      a      +E   +E   Q    E
|-10------15b17==(15)-(15)-15---12-|
|----------------------------------|
|----------------------------------|
|----------------------------------|
|----------------------------------|
|----------------------------------|
|
|  E  E E          E   +E   E E  E
|----------------------------------|
|----------------------------------|
|----------------------------------|
|--0--7S5----------3---(3)--3----5-|
|-----5S3----------1---(1)--0----3-|
|-----------------------------3----|


             ~~                          ~~                       ~~
   +E   Q    E  +E   S  S  S  S  S  S    Q    E  a      +E   +E   Q    E
|-(12)--------------------10h13p10----|-10---10-13b15==(13)-(13)-13---12-|
|------13---15-(15)-10h13----------13-|----------------------------------|
|-------------------------------------|----------------------------------|
|-------------------------------------|----------------------------------|
|-------------------------------------|----------------------------------|
|-------------------------------------|----------------------------------|
|
|  +E   E E  E  +E   S  S  S  S  S  S    E E  E          E   +E   E E  E
|-------------------------------------|----------------------------------|
|-------------------------------------|----------------------------------|
|-------------------------------------|----------------------------------|
|--(5)--5----7--(7)--------0h=3p=0----|--0-7S=5----------3---(3)--3----5-|
|--(3)--0----5--(5)--0h=3-----------3-|----5S=3----------1---(1)--0----3-|
|---------3---------------------------|-----------------------------3----|


   +E   Q    E  +E   S  S  S  S  S  S
|-(12)------10-(10)-------10h13p10----|
|------13-----------10h13----------13-|
|-------------------------------------|
|-------------------------------------|
|-------------------------------------|
|-------------------------------------|
|
|  +E   E E  E  +E   S  S  S  S  S  S
|-------------------------------------|
|-------------------------------------|
|-------------------------------------|
|--(5)--5----7--(7)--------0h=3p=0----|
|--(3)--0----5--(5)--0h=3-----------3-|
|---------3---------------------------|


                                    2/4
                            ~~~~~~~
   Q.      a      +E   +E   Q    E    +E   Q    E
|-10------15b17==(15)-(15)-15---12-|-(12)--------------|
|----------------------------------|------13---13b15===|
|----------------------------------|-------------------|
|----------------------------------|-------------------|
|----------------------------------|-------------------|
|----------------------------------|-------------------|
|
|  E  E E          E   +E   E E  E    +E   E E  E
|----------------------------------|-------------------|
|----------------------------------|-------------------|
|----------------------------------|-------------------|
|--0--7S5----------3---(3)--3----5-|--(5)--5-----------|
|-----5S3----------1---(1)--0----3-|--(3)--0---(0)-----|
|-----------------------------3----|---------3---------|


 Verse
 4/4
                                              ~~~~
   +H.              a     +E   S S    a      +H.               S     +S   S S
|----------------------------------|------------------------------------------|
|-(13)-------------12b14-(12)r12p9-|-10b12==(10)--------------10b12-(10)r10p9-|
|----------------------------------|------------------------------------------|
|----------------------------------|------------------------------------------|
|----------------------------------|------------------------------------------|
|----------------------------------|------------------------------------------|
|
|   e  E e E e S S         e   S S            e  E E. S e S S  e          S S
|----------------------------------|------------------------------------------|
|---5----5---5---------------------|------------------------------------------|
|---4----4---4-------------------4-|---------------4--4-4------4------------4-|
|---6----6---6-------------6-----4-|---------------4--4-4---4--4------------4-|
|---4----4---4-4-4---------4-----6-|-------------6-6--6-6-6----6----------6---|
|----------------------------------|----------4--4----------------------------|


                             ~
   a     +Q     S     +S   S S +E    E    E.    S
|--------------------------------------------------|
|--------------------------------------------------|
|-11b13-(11)---11b13-(11)r11p9-(9)---9---11p====9--|
|--------------------------------------------------|
|--------------------------------------------------|
|--------------------------------------------------|
|
|         e  E  e          E    S  S S S  S S e
|--------------------------------------------------|
|---------5-----5--------------------5-x------7----|
|---------4-----4--------------------3-x------5----|
|---------6-----6------------------5--------7------|
|------------4-------------4----3---------5--------|
|--------------------------------------------------|


   a      +Q     e  S  S E    E   E S   S   E.   S S  S  S S S  s  E   E    E
|---------------12------------------------|---------------------------------------|
|-----------------------------------------|---------------------------------------|
|-11b13==(11)------13r11-9---11---9-------|-9----9-9h11------9h11------9---11b13==|
|-----------------------------------9h=11-|-------------11-x------11--------------|
|-----------------------------------------|---------------------------------------|
|-----------------------------------------|---------------------------------------|
|
|          E  E  Q       S E    S E E       E  E   S  S  S S S  S  S S S S  E
|-----------------------------------------|--------4p=2---------------------------|
|----------------9-------9-9----9-9-------|--------2-----2-x---------4------------|
|----------------7-------7-7----7-7-------|----2-----------x---------4------------|
|-------------9--9-------9-9----9-9-9\----|-4----------------------4---6p4--------|
|----------7--7---------------------------|------------------4S=6-----------6-----|
|-----------------------------------------|---------------------------------------|


                         ~~~
   +E   E    S  S S S S  E.    +E.     S
|------------------------------------------|
|------12----------------------------------|
|-(11)------13r11p9-9----------------------|
|---------------------9h11----(11)----11---|
|------------------------------------------|
|------------------------------------------|
|
|   E   S S  S  S S S E.    S   S S E
|------------2p=0--------------------------|
|-------0-0-------0-x----------------------|
|-------1-1-------1-x----------------------|
|-------2-2-----------2-----2---4p2--------|
|---------------------0-------------4------|
|---0--------------------------------------|


                                       |---3---|
  S  E   S  e    S S  a      +Q       +S   S   S  E
|-----------------------------------------------------|
|-----------------------------------------------------|
|--------9-11------9-11b13==(11)-----(11)r11p==9------|
|-9h11----------11-------------------------------11---|
|-----------------------------------------------------|
|-----------------------------------------------------|
|
| E    E    S s  E            E  S S   S     S    S S
|-----------2-2---------------------------------------|
|-----------2-2---------------------------------------|
|-----------2-2------------------------4-----4------x-|
|------2---------------------------4---4-----4------x-|
|-----------------------------2--2-----2----------2---|
|-2---------------------------------------------------|


  ~
  H        E  S  S  S  S  S  S
|------------------10h13p10-----|
|------------10h13----------13--|
|-9-----------------------------|
|-------------------------------|
|-------------------------------|
|-------------------------------|
|
| E S S Q  E  S  S  S  S  S  S
|-------------------------------|
|-------------------------------|
|-------------------------------|
|-2-x-2-2-----------0h=3p=0-----|
|-2-x-2-2--0--0h=3-----------3--|
|-0-----0-----------------------|


 Chorus
   ~~~                           ~~
   Q.      a      +E   +E   Q    E
|-10------13b15==(13)-(13)-13---12-|
|----------------------------------|
|----------------------------------|
|----------------------------------|
|----------------------------------|
|----------------------------------|
|
|  E  E E          E   +E   E E  E
|----------------------------------|
|----------------------------------|
|----------------------------------|
|--0--7S5----------3---(3)--3----5-|
|-----5S3----------1---(1)--0----3-|
|-----------------------------3----|


             ~~                          ~~~                      ~~~~~~~
   +E   Q    E  +E   S  S  S  S  S  S    Q.      a      +E   +E   Q    E
|-(12)------10-(10)-------10h13p10----|-10------15b17==(15)-(15)-15---12-|
|------13-----------10h13----------13-|----------------------------------|
|-------------------------------------|----------------------------------|
|-------------------------------------|----------------------------------|
|-------------------------------------|----------------------------------|
|-------------------------------------|----------------------------------|
|
|  +E   E E  E  +E   S  S  S  S  S  S    E  E E          E   +E   E E  E
|-------------------------------------|----------------------------------|
|-------------------------------------|----------------------------------|
|-------------------------------------|----------------------------------|
|--(5)--5----7--(7)--------0h=3p=0----|--0--7S5----------3---(3)--3----5-|
|--(3)--0----5--(5)--0h=3-----------3-|-----5S3----------1---(1)--0----3-|
|---------3---------------------------|-----------------------------3----|


             ~~
   +E   Q    E  +E   S  S  S  S  S  S
|-(12)--------------------10h13p10----|
|------13---15-(15)-10h13----------13-|
|-------------------------------------|
|-------------------------------------|
|-------------------------------------|
|-------------------------------------|
|
|  +E   E E  E  +E   S  S  S  S  S  S
|-------------------------------------|
|-------------------------------------|
|-------------------------------------|
|--(5)--5----7--(7)--------0h=3p=0----|
|--(3)--0----5--(5)--0h=3-----------3-|
|---------3---------------------------|


   ~~                       ~~
   Q    E  a  +E       +E   Q    E    +E   Q    E  +E   S  S  S  S  S  S
|-10---10-13-(13)b15==(13)-13---12-|-(12)------10-(10)-------10h13p10----|
|----------------------------------|------13-----------10h13----------13-|
|----------------------------------|-------------------------------------|
|----------------------------------|-------------------------------------|
|----------------------------------|-------------------------------------|
|----------------------------------|-------------------------------------|
|
|  E E  E      E       +E   E E  E    +E   E E  E  +E   S  S  S  S  S  S
|----------------------------------|-------------------------------------|
|----------------------------------|-------------------------------------|
|----------------------------------|-------------------------------------|
|--0-7S=5------3-------(3)--3----5-|--(5)--5----7--(7)--------0h=3p=0----|
|----5S=3------1-------(1)--0----3-|--(3)--0----5--(5)--0h=3-----------3-|
|-----------------------------3----|---------3---------------------------|


                                    2/4
   ~~~                           ~~
   Q.      a      +E   +E   Q    E    +E   Q    E
|-10------15b17==(15)-(15)-15---12-|-(12)-------------||
|----------------------------------|------13---12b14==||
|----------------------------------|------------------||
|----------------------------------|------------------||
|----------------------------------|------------------||
|----------------------------------|------------------||
|
|  E  E E          E   +E   E E  E    +E   E E  E
|----------------------------------|------------------||
|----------------------------------|------------------||
|-------------------------





Comments


Popular Eric Clapton tabs & chords
It Hurts Me Too Bass Tabs
May You Never 1 Chords
Classical Gas 2 Tabs
Old Love Tabs
Tears In Heaven 5 Tabs
After Midnight Ukulele
Before You Accuse Me Ukulele
Circus Left Town Ukulele
I Cant Stand It Ukulele
Rockin Chair Ukulele


Song lyrics



↑ Back to top | Tablatures and chords are parodies/interpretations of the original songs. You may use it for private study, scholarship, research or language learning purposes only
© 2014 AZChords.com Contact us | Privacy policy | DMCA | Add/correct tabs | Request tabs | Top 50 tabs