» » »

Eric Clapton, Layla Bass tabs (ver.3)

Artists:  A B C D E F G H I J K L M N O P Q R S T U V W X Y Z # 

Layla Bass tabs (ver.3)

Eric Clapton Tabs
Rating:
0/5 (0 votes)
Layla lessons Tabs too difficult? Try these video lessons and learn fast
                -------------------------------------------------------------------------------
                             Layla Acoustic Bass Tab - Eric Clapton
-------------------------------------------------------------------------------

Tuning:EADB

This is my first tab, but it seems to work well with the song--glad to hear
suggestions to improve. The chorus is a bit syncopated,
with the 023 on the d string syncrhonized with the upward chord progression.

Intro

G|------------------------------------------------------------------------------|
D|0----------0------------------------------------------------------------------|
A|----1---3---------------------------------------------------------------------|
E|------------------------------------------------------------------------------|

Bridge to verse
G|---------------------------------------------------------------------------|
D|---------------------------------------------------------------------------|
A|0---3---4------------------------------------------------------------------|
E|---------------------------------------------------------------------------|

  What will you do when you get lonely
G|---------------------------------------------------------------------------|
D|---------------------------------------------------------------------------|
A|4--------------------------------------------------------------------------|
E|------------------------------4--------------------------------------------|

  Nobodys waiting by your side
G|---------------------------------------------------------------------------|
D|---------------------------------------------------------------------------|
A|4--------2-----------------------------------------------------------------|
E|-----------------------4---------------------------------------------------|

  Youve been runnin and hiding much too long
G|---------------------------------------------------------------------------|
D|---------------------------------------------------------------------------|
A|-----------2---------------------------0-----------------------------------|
E|2---------------------0----------------------------------------------------|

  You know its just your foolish pride, Layla
G|---------------------------------------------------------------------------|
D|---------------------------------------------------------------------------|
A|-------------2-------------------------0 (ring)----------------------------|
E|2--------------------------------0-----------------------------------------|

  Chorus & instrumental
G|--------------------|repeat
D|023---20-----------0|
A|---------3-023--023-|
E|--------------------|
            

comments powered by Disqus
↑ Back to top | Eric Clapton Bass for Layla. Lyrics for acoustic guitar and electric guitar. Tablatures and chords are parodies/interpretations of the original songs. You may use it for private study, scholarship, research or language learning purposes only