» » »

Eric Clapton, Layla Tabs (ver.1)

Artists:  A B C D E F G H I J K L M N O P Q R S T U V W X Y Z # 

Layla Tabs (ver.1)

Eric Clapton Tabs
 Rating:
4/5 (4 votes)
Layla lessons Tabs too difficult? Try these video lessons and learn fast
                layla
eric clapton

Intro/chorus

Riff 1
----0h3p0-0----------------------------------------------------------------
-03------3-------------------------------------------------------------

Riff 2
-7-5-3-----5----9------------------------------------------------------
-7-5-3-----5----9--------------------------------------------------------
-5-3-1-0---3-0--7-----------------------------------------------------------
---------3-----3--------------------------------------------------------

Riff 3
-------10h13p10----10------------------------------------------------------------
-10-13----------13-----------------------------------------------------------

Riff 4
--13b(15)-13-12----10--------------------------------------------------------------
----------------13-------------------------------------------------------

Riff 5
-15b(17)-15-13--------------------------------------------------------------------
---------------13-15------------------------------------------------------

Verse

C#, G#, C#5, C5, B5, D5, E5,                        X2
F#5, B5, E, A

riffs 1-2 are played on 1 guitar and riffs 3-5 are played over the top
with a 2nd guitar
Sorry I don’t have the solo.
Listen to the song to get the right speed and order (it’s pretty easy
to work out)
            
Submit corrections

comments powered by Disqus
↑ Back to top | Eric Clapton Tabs for Layla. Lyrics for acoustic guitar and electric guitar. Tablatures and chords are parodies/interpretations of the original songs. You may use it for private study, scholarship, research or language learning purposes only