>
 >
Pare Ko

Pare Ko Guitar Tabs

Eraserheads - Pare Ko chords, tabs, tablatures, lyrics

Guitar lessons | Add/correct | Request | Top 50 tabs Artists:  A B C D E F G H I J K L M N O P Q R S T U V W X Y Z 0-9

Pare Ko Guitar Tabs – Eraserheads

CD, Sheet music, Poster

Do you like Pare Ko? Share with your friends now
Bass TabsBass Tabs v2Bass Tabs v3ChordsChords v2Chords v3Chords v4TabsTabs v2Tabs v3Tabs v4Ukulele
-----------------------------------------------------------------------------
-----------------------------------------------------------------------------


Tuning: Standard

Intro:

E|---------------|
B|-8~~~~---------|
G|---------------|
D|--------10~~~~-|
A|---------------|
E|---------------|

Verse: “Anong sarap naging kami’y magkaibigan…”

E|------------3------------------------------------------------------| Repeat
B|---2---4------5-3-------------------3---3--------------------------| this
G|---------3--------------------------------4--4-2----------4~-------| tab
D|-------------------7------------------------------4~--5~---------5-| twice
A|---------------------9-7-5-7-9-------------------------------3/5---| then…
E|-2---4--------------------------5-3---3----------------------------|

“Masakit mang isipin, kailangang tanggapin…”

E|---------------------------------------------------------------9-----9-8--|
B|--------------------------------------------------------------------------|
G|---5--------5---5----5--------5---4-2-----2---2---2---2---2--9----10------|
D|----------0---0-------------0---0-------------------0---0-----------------|
A|-0---0-3-----------0---0-3------------0-3---3---3-------------------------|
E|--------------------------------------------------------------------------|

Chorus: “Oh, Diyos ko, ano ba naman ito…”

E|------------------------------------------------------------6------------|
B|-------8----------7----------0----------0----------8----------7h9-9------|
G|---7-----7----7-----7----0-----0----5-----0----7-----7--5-7---------7----|
D|-5---5------7---7----------------------------5---5-----------------------|
A|-----------------------7---7------7---7--------------------------------7-|
E|-------------------------------------------------------------------------|

E|---------|
B|-----0---|
G|-5-----0-|
D|---------|
A|---7-----|
E|---------|

“Pinaasa niya lang ako…”

E|--------------------------------------------| Repeat this tab twice then…
B|-------8----------7----------0----------0---|
G|---7-----7----7-----7----0-----0----5-----0-|
D|-5---5------7---7---------------------------|
A|-----------------------7---7------7---7-----|
E|--------------------------------------------|

E|------------------------------------------|
B|-------8----------7----------0------------|
G|---7-----7----7-----7----0-----0--15~-13~-|
D|-5---7------7---7-------------------------|
A|-----------------------7---7--------------|
E|------------------------------------------|

Solo:

E|-15~--------------15-15--15-17b-19-17--15-15h17-15-----------------------|
B|------12h15-15/17----------------------------------17-15-14-12-10-8----8-|
G|---------------------------------------------------------------------9---|
D|-------------------------------------------------------------------------|
A|-------------------------------------------------------------------------|
E|-------------------------------------------------------------------------|

E|------------------------------------10----10-10/12-10/12-10~-|
B|-8----8-10-8-------8----------8-10-----10--------------------|
G|----9--------9-7-9---9-7--7-9--------------------------------|
D|-------------------------------------------------------------|
A|-------------------------------------------------------------|
E|-------------------------------------------------------------|

Verse: “Sabi niya ayaw niya munang magkasiyota…”

E|--------------------------13-11-13-8-11-|
B|------------8~--8/10\8~-----------------|
G|----------------------------------------|
D|------7/10------------------------------|
A|-7/10-----------------------------------|
E|----------------------------------------|

“Bakit ba ang labo niya?”

E|-----------------------------------------------------------------13----11-|
B|--------------------------------------------------------------14----14----|
G|---5--------5---5----5--------5---4-2------2---2---2---2---2--------------|
D|----------0---0-------------0---0--------------------0---0----------------|
A|-0---0-3-----------0---0-3-------------0-3---3---3------------------------|
E|--------------------------------------------------------------------------|

“Pero minamahal ko siya…”

E|-----------------------------0----------------------0--------------| then…
B|-------8----------7-------------------10-8-6-------------------5---|
G|---7-----7----7-----7----5-----5--7-9-----------5-----7----5-------|
D|-5---5------7---7------7---7------------------7---7------5---5---5-|
A|-------------------------------------------------------------------|
E|-------------------------------------------------------------------|

“Alam kong nababaduyan ka na sa mga sinasabi ko pero sana naman ay maintindihan mo…”

E|-----------------------------0---------------------------------------0----|
B|-------8----------7-------------------5----------8----------7-----------8-|
G|---7-----7----7-----7----5--------5-----5----7-----7----7--------5--------|
D|-5---5------7---7------7---7----5---5------5---5------7---7----7---7------|
A|--------------------------------------------------------------------------|
E|--------------------------------------------------------------------------|

E|-----------7b-------------------------------------------------------------|
B|-8-8-8-8-8-----------8----------5-----5-----5----------8-----8-----8------|
G|-----------------7-----7----5-----5-----5-----5----7-----7-----7-----7----|
D|---------------5---5------5---5-----5-----5------5---5-----5-----5------5-|
A|--------------------------------------------------------------------------|
E|--------------------------------------------------------------------------|

E|---------------------|
B|-----5-----5-----5---|
G|-5-----5-----5-----5-|
D|---5-----5-----5-----|
A|---------------------|
E|---------------------|

“Kailangan lang ay ang iyong pakikiramay…”

E|----------------------------------------------| Repeat this tab twice then…
B|-------8-----8-----8----------5-----5-----5---| Repeat Refrain then…
G|---7-----7-----7-----7----5-----5-----5-----5-| Repeat the first of Chorus
D|-5---5-----5-----5------5---5-----5-----5-----| then second tab thrice
A|----------------------------------------------| then…
E|----------------------------------------------|

E|----------------------------------------------14------------------------|
B|-------8----------7----------0-------------------16-13----13b-13-15b-17-|
G|---7-----7----7-----7----0-----0--10~-8~---------------15---------------|
D|-5---5------7---7------------------------10~----------------------------|
A|-----------------------7---7--------------------------------------------|
E|------------------------------------------------------------------------|

E|-----|
B|-14b-|
G|-----|
D|-----|
A|-----|
E|-----|





Comments


Popular Eraserheads tabs & chords
Alapaap 3 Bass Tabs
Ligaya 2 Bass Tabs
Minsan Bass Tabs
68 Dr. Sixto Antonio Ave 1 Chords
Ang Huling El Bimbo 3 Chords
Hey Jay Chords
Spolarium Chords
Huwag Mo Nang Itanong 1 Tabs
Wishing Wells Intro Tabs
Harana Ukulele


Song lyrics



↑ Back to top | Tablatures and chords are parodies/interpretations of the original songs. You may use it for private study, scholarship, research or language learning purposes only
© 2014 AZChords.com Contact us | Privacy policy | DMCA | Add/correct tabs | Request tabs | Top 50 tabs