>
 >
Para Sa Masa

Para Sa Masa Guitar Tabs

Eraserheads - Para Sa Masa chords, tabs, tablatures, lyrics

Guitar lessons | Add/correct | Request | Top 50 tabs Artists:  A B C D E F G H I J K L M N O P Q R S T U V W X Y Z 0-9

Para Sa Masa Guitar Tabs – Eraserheads

CD, Sheet music, Poster

Do you like Para Sa Masa? Share with your friends now
ChordsChords v2TabsTabs v2Ukulele
PARA SA MASA
ERASERHEAD
___ferdz____

Ensayo lang tsaka kailangan alam nyo yung tunog at makukuha nyo rin ito ge tol enjoy!!!

INTRO:
GUITAR 1:

      C                 Csus            Am9
e|----------0-----------3--0------|----------0-----5---5---3---0-----|
B|----1-----1--------1---------1---|----0-----0-----------------------|
G|----0-----------0----------------|----0--------0--------------------|
D|-------2-----2-------------------|-------2--------------------------|
A|----3----------------------------|----------------------------------|
E|---------------------------------|----0-----------------------------|
(Repeat 3x)

      C                 Csus           Am9
e|----------0-----------3--0------|---------0-------------3---0------|
B|----1-----1--------1---------1---|---0-----0----------0-------------|
G|----0-----------0----------------|---0------------0-------------0---|
D|-------2-----2-------------------|------2-----2---------------------|
A|----3----------------------------|----------------------------------|
E|---------------------------------|---0------------------------------|


                                   I

      C                                Am9
e|-------------0-------------------|------------0---------------------|
B|----1--------1------------1------|---0--------0----------0----------|
G|----0-------------0----------0---|---0------------0-----------0-----|
D|--------2-------------2----------|--------2-----------2-------------|
A|----3----------------------------|----------------------------------|
E|---------------------------------|---0------------------------------|
(Repeat 4x)
 Ito ay para sa mga masa
 Sa lahat ng nawalan ng pag-asa
 Sa lahat ng aming nakasama
 Sa lahat ng hirap at pagdurusa. . .

      FM7                               G
e|---------------0-----------------|---------------3------------------|
B|----1----------1--------1--------|----0----------0----------0-------|
G|----2-------------2---------2----|----0--------------0----------0---|
D|--------3------------3-----------|--------0--------------0----------|
A|------------0--------------------|------------2---------------------|
E|----0----------------------------|----3-----------------------------|
 Naaalala nyo pa ba???

      D                                 Dsus
e|----2---------2----------2-------|----3-----3------5---3---2-------|
B|----3---------3----------3-------|----3-----3------5----------0----|
G|--------2---------2----------2---|-------2-----2-------------------|
D|----0------0---------0-----------|---------------------------------|
A|---------------------------------|---------------------------------|
E|---------------------------------|---------------------------------|

      FM7                               G
e|---------------0-----------------|---------------3------------------|
B|----1----------1--------1--------|----0----------0----------0-------|
G|----2-------------2---------2----|----0--------------0----------0---|
D|--------3------------3-----------|--------0--------------0----------|
A|------------0--------------------|------------2---------------------|
E|----0----------------------------|----3-----------------------------|
 Binigyan namin kayo ng. . .

       D                    Dsus        Dm9
e|-----2---------2----------3------|----0------0------0---------------|
B|-----3---------3----------3------|----2------2------2------2--------|
G|---------2---------2-------------|--------2-----2-------2------0----|
D|-----0------0---------0----------|----------------------------------|
A|---------------------------------|----0-----------------------------|
E|---------------------------------|----------------------------------|
 ligaya. . .

GUITAR 2:Strumming one chords one down (C-Em 4x)

      C                                Em
e|--------------0------------------|-------------0--------------------|
B|----1---------1-----------1------|---0---------0---------0----------|
G|----0-------------0----------0---|---0-------------0----------0-----|
D|--------2--------------2---------|-------2-------------2------------|
A|----3------3---------------------|----------2-----------------------|
E|---------------------------------|---0------------------------------|
(Repeat 4x)
 Ilang taon na rin ang lumipas
 Mga kulay ng mundo ay kumupas
 Marami narin ang mga pagbabago
 Di maiiwasan pagkat tayo ay tao lamang. . .

GUITAR 2:(F-G-D-Dsus-F-G-D-Dsus-A)

      FM7                               G
e|---------------0-----------------|---------------3------------------|
B|----1----------1--------1--------|----0----------0----------0-------|
G|----2-------------2---------2----|----0--------------0----------0---|
D|--------3------------3-----------|--------0--------------0----------|
A|------------0--------------------|------------2---------------------|
E|----0----------------------------|----3-----------------------------|
 Mapapatawad mo ba ako???

      D                               Dsus
e|----2---------2---------------2--|--3------------3/5---3---2--------|
B|----3---------3----------3-------|-----3-----3-----------------0----|
G|--------2---------2--------------|--------2-------------------------|
D|----0------0---------0-----------|----------------------------------|
A|---------------------------------|----------------------------------|
E|---------------------------------|----------------------------------|

      FM7                               G
e|---------------0-----------------|---------------3------------------|
B|----1----------1--------1--------|----0----------0----------0-------|
G|----2-------------2---------2----|----0--------------0----------0---|
D|--------3------------3-----------|--------0--------------0----------|
A|------------0--------------------|------------2---------------------|
E|----0----------------------------|----3-----------------------------|
 Kung hindi ko sinunod ang. . .

       D                    Dsus        Dm9
e|-----2---------2----------3------|----0------0------0---------------|
B|-----3---------3----------3------|----2------2------2------2--------|
G|---------2---------2----------0--|--------2-----2-------2------0----|
D|-----0------0---------0----------|----------------------------------|
A|---------------------------------|----0-----------------------------|
E|---------------------------------|----------------------------------|
 Gusto mo. . .

Guitar 2:(C-Em 4x)

      C                                Em
e|--------------0------------------|--------------0-------------------|
B|----1---------1-----------1------|---0----------0----------0--------|
G|----0-------------0----------0---|---0--------------0-----------0---|
D|--------2-------------2----------|-------2--------------2-----------|
A|----3------3---------------------|-----------2----------------------|
E|---------------------------------|---0------------------------------|
(repeat 4x)
 Lalalala. . .lalalala. . .

GUITAR 2:(F-G-D-Dsus-F-G-D-Dsus-A)

      FM7                               G
e|---------------0-----------------|---------------3------------------|
B|----1----------1--------1--------|----0----------0----------0-------|
G|----2-------------2---------2----|----0--------------0----------0---|
D|--------3------------3-----------|--------0--------------0----------|
A|------------0--------------------|------------2---------------------|
E|----0----------------------------|----3-----------------------------|
 pinilit kong iahon ka. . .Yeah!!!

      D                               Dsus
e|----2---------2---------------2--|--3------------3/5---3---2--------|
B|----3---------3----------3-------|-----3-----3-----------------0----|
G|--------2---------2--------------|--------2-------------------------|
D|----0------0---------0-----------|----------------------------------|
A|---------------------------------|----------------------------------|
E|---------------------------------|----------------------------------|

      FM7                               G
e|---------------0-----------------|---------------3------------------|
B|----1----------1--------1--------|----0----------0----------0-------|
G|----2-------------2---------2----|----0--------------0----------0---|
D|--------3------------3-----------|--------0--------------0----------|
A|------------0--------------------|------------2---------------------|
E|----0----------------------------|----3-----------------------------|
 Ngunit ayaw mo namang. . .

       D                    Dsus        Dm9
e|-----2----------2---------3------|----0------0------0---------------|
B|-----3----------3---------3------|----2------2------2------2--------|
G|---------2-----------2--------0--|--------2-----2-------2------0----|
D|-----0------0--------------------|----------------------------------|
A|---------------------------------|----0-----------------------------|
E|---------------------------------|----------------------------------|
 Sumama. . .

                                   II

Guitar 2:(C-Em 12x)

      C                                Em
e|--------------0------------------|--------------0-------------------|
B|----1---------1-----------1------|---0----------0----------0--------|
G|----0-------------0----------0---|---0--------------0-----------0---|
D|--------2-------------2----------|-------2--------------2-----------|
A|----3------3---------------------|-----------2----------------------|
E|---------------------------------|---0------------------------------|
(Repeat 12x)
 Ito ay para sa mga masa
 Sa lahat ng binaon ng sistema
 Sa lahat ng aming nakabarkada
 Sa lahat ng mahilig sa lovesong at drama

 Sa lahat ng di marunong bumasa
 Sa lahat ng may problema sa skwela
 Sa lahat ng fans ni sharon cuneta
 Sa lahat ng may problema sa pera

 Sa lahat ng masa (Sa lahat ng masa)4x

GUITAR 2:(F-G-D-Dsus-F-G-D-Dsus-A)

      FM7                               G
e|---------------0-----------------|---------------3------------------|
B|----1----------1--------1--------|----0----------0----------0-------|
G|----2-------------2---------2----|----0--------------0----------0---|
D|--------3------------3-----------|--------0--------------0----------|
A|------------0--------------------|------------2---------------------|
E|----0----------------------------|----3-----------------------------|
 Huwag mong hayaang ganito. . .

      D                               Dsus
e|----2---------2---------------2--|--3------------3/5---3---2--------|
B|----3---------3----------3-------|-----3-----3-----------------0----|
G|--------2---------2--------------|--------2-------------------------|
D|----0------0---------0-----------|----------------------------------|
A|---------------------------------|----------------------------------|
E|---------------------------------|----------------------------------|

      FM7                               G
e|---------------0-----------------|---------------3------------------|
B|----1----------1--------1--------|----0----------0----------0-------|
G|----2-------------2---------2----|----0--------------0----------0---|
D|--------3------------3-----------|--------0--------------0----------|
A|------------0--------------------|------------2---------------------|
E|----0----------------------------|----3-----------------------------|
 Bigyan ang sarili ng. . .

       D                    Dsus        Dm9
e|-----2----------2---------3------|----0------0------0---------------|
B|-----3----------3---------3------|----2------2------2------2--------|
G|---------2-----------2--------0--|--------2-----2-------2------0----|
D|-----0------0--------------------|----------------------------------|
A|---------------------------------|----0-----------------------------|
E|---------------------------------|----------------------------------|
 Respeto. . .

Guitar 2:(C-Em)

      C                                Em
e|--------------0------------------|--------------0-------------------|
B|----1---------1-----------1------|---0----------0----------0--------|
G|----0-------------0----------0---|---0--------------0-----------0---|
D|--------2-------------2----------|-------2--------------2-----------|
A|----3------3---------------------|-----------2----------------------|
E|---------------------------------|---0------------------------------|
 Lalalala. . .lalalala (Fade)





Comments


Popular Eraserheads tabs & chords
Shirley Bass Tabs
Huling El Bimbo 2 Chords
Milk And Money 1 Chords
Superproxy Chords
Alapaap Intro 1 Tabs
Fine Time Tabs
Harana Intro Tabs
Huling El Bimbo (Intro) Tabs
El Bimbo Ukulele
Human Pellet Ukulele


Song lyrics



↑ Back to top | Tablatures and chords are parodies/interpretations of the original songs. You may use it for private study, scholarship, research or language learning purposes only
© 2014 AZChords.com Contact us | Privacy policy | DMCA | Add/correct tabs | Request tabs | Top 50 tabs