» » »

The Architects Of My Apocalypse Bass tabs (ver.1)

Artists:  A B C D E F G H I J K L M N O P Q R S T U V W X Y Z # 

The Architects Of My Apocalypse Bass tabs (ver.1)

Emil Bulls
Rating:
5/5 (1 vote)

Hard to play? Try these video lessons and learn fast.
                Emil Bulls
The Architects of my Apocalypse
Phoenix (2009)


5 String


Intro:
                               x7
G|-----------||-------------------||
D|-----------||-------------------||
A|-----------||-------------------||
E|-----------||-------------------||
B|--3-3-3----||-----33-3-3--------||


Vers:

G|----------------------------------| x3
D|----------------------------------|
A|--22-222-222-222-2----------------|
E|------------------33-333-333-333--|
B|----------------------------------|


G|------------------------------------| x1
D|------------------------------------|
A|--22-222-222-222-2------------------|
E|------------------33-333-333333333--|
B|------------------------------------|


Pre-Chorus:

G|-----------------------------------------------------------------|
D|-----------------------------------------------------------------|
A|-----------------------------------------------------------------|
E|------------------5-5-5-5-5-5-5-5-----------------5-5-5-5-5-5-5-5|
B|--0-0-0-0-0-0-0-0-----------------0-0-0-0-0-0-0-0----------------|


G|----------------------------------|
D|----------------------------------|
A|--5-5-5-5-5-5-5-5-5-5-5-5-5-5-5-5-|
E|----------------------------------|
B|----------------------------------|


Chorus:


G|-------------------------------------------------------------------------|
D|-------------------------------------------------------------------------|
A|-------------------------------------------------------------------------|
E|------------------5--5-5-5-5-5-5-------------------3-3-3-3-3-3-3-3-------|
B|--3--3-3-3-3-3-3------------------0-0-0-0-0-0-0-0------------------------|


G|-----------------------------------------------------------------------|
D|-----------------------------------------------------------------------|
A|-----------------------------------------------------------------------|
E|------------------5--5-5-5-5-5-5--2-2-2-2-2-2-2--3-3-3-3-3-3-3-3-------|
B|--3--3-3-3-3-3-3-------------------------------------------------------|


Intro:
                               x3
G|-----------||-------------------||
D|-----------||-------------------||
A|-----------||-------------------||
E|-----------||-------------------||
B|--3-3-3----||-----33-3-3--------||


Vers

Pre-Chorus

Chorus


Bridge:
                 x7
G||-----------||
D||-----------||
A||--5-5-5-5--||
E||-----------||
B||-----------||

G||-----------------------------------------------------------------|
D||-----------------------------------------------------------------|
A||--5-5-5----------------------------------------------------------|
E||--------5----------5----------5------5-----5---5---5-------------|
B||----------3----------3----------3------3-----3---3---3-3-3-3-----|


Solo:
                   x15
G||----------------------------------|                  
D||----------------------------------|                  
A||-(22222222)-----------------------|                      
E||----------------------------------|
B||--00000000------------------------|

at the end:

G|------------|
D|------------|
A|------------|
E|--33333333--|
B|------------|


Chorus:

G|--------------------------------------------------------------------------|
D|--------------------------------------------------------------------------|
A|--------------------------------------------------------------------------|
E|------------------5-5-5-5-5-5-5-5-------------------3-3-3-3-3-3-3-3-------|
B|--3--33--3--33-3-------------------0-0-0-0-0-0-0-0------------------------|


G|--------------------------------------------------------------------------|
D|--------------------------------------------------------------------------|
A|--------------------------------------------------------------------------|
E|-------------------5-5-5-5-5-5-5-5--2-2-2-2-2-2-2--3-3-3-3-3-3-3-3--------|
B|--3-3-3-3-3-3-3-3---------------------------------------------------------|

G|---------------------------------------------------------------------------|
D|---------------------------------------------------------------------------|
A|---------------------------------------------------------------------------|
E|-------------------5-5-5-5-5-5-5-5-------------------3-3-3-3-3-3-3-3-------|
B|--3-3-3-3-3-3-3-3-------------------0-0-0-0-0-0-0-0------------------------|


G|--------------------------------------------------------------------------|
D|--------------------------------------------------------------------------|
A|--------------------------------------------------------------------------|
E|-------------------5-5-5-5-5-5-5-5--2-2-2-2-2-2-2--3-3-3-3-3-3-3-3--------|
B|--3-3-3-3-3-3-3-3---------------------------------------------------------|


G|-----------|
D|-----------|
A|-----------|
E|-----------|
B|--3~~~~~~--


Outro:
                               x3
G|-----------||-------------------||
D|-----------||-------------------||
A|-----------||-------------------||
E|-----------||-------------------||
B|--3-3-3----||-----33-3-3--------||

G|-----------|
D|-----------|
A|-----------|
E|-----------|
B|--3--------|


That`s it

mo
            
Hard to play? Try these video lessons and learn fast. | Correct




comments powered by Disqus
↑ Back to top | Tablatures and chords are parodies/interpretations of the original songs. You may use it for private study, scholarship, research or language learning purposes only