» » »

The Architects Of My Apocalypse Bass tabs (ver.2)

Artists:  A B C D E F G H I J K L M N O P Q R S T U V W X Y Z # 

The Architects Of My Apocalypse Bass tabs (ver.2)

Emil Bulls
Rating:
5/5 (1 vote)

Hard to play? Try these video lessons and learn fast.
                Hier ist mein Basstab zu dem tab von necriononguitar (greetz!).
Es werden bald noch mehr tabs von Emil Bulls folgen!

Tuning ist Drop D!


Intro:
G---------------------------------------------------------------------|
D---------------------------------------------------------------------|
A-----------------------------oder-5-5-5-5-5-5-5-5-5-5-5-5-5...-------|
E---0-0-0-0-0-0-0-0-0-0-0-0...----------------------------------------|

Vers:
G---------------------------------------------------------------|
D---------------------------------------------------------------|
A---2-2--2-2-2--2-2-2--2-2-2--2---------------------------------|
E-------------------------------5-5--5-5-5--5-5-5--5-5-5--5-----|

Vers 2:
G---------------------------------------------------------------------------|
D---------------------------------------------------------------------------|
A---------------------------------------------------------------------------|
E---9-9-9-9-9-9-9-9--9-9-9-9-9-9-9-9--7-7-7-7-7-7-7-7--7-7-7-7-7-7-7-7------|

Chorus:
G-------------------------------------------------------------------------|
D-------------------------------------------------------------------------|
A-------------------------------------------------------------------------|
E---0-0-0-0-0-0-0-0--7-7-7-7-7-7-7-7--9-9-9-9-9-9-9-9--5-5-5-5-5-5-5-5----|

G-------------------------------------------------------------------------|
D-------------------------------------------------------------------------|
A-------------------------------------------------------------------------|
E---0-0-0-0-0-0-0-0--7-7-7-7-7-7-7-7--4-4-4-4-4-4-4-4--5-5-5-5-5-5-5-5----|

und jetzt wird nurnoch weiterhin der bisher gespielte part wiederholt!
guckt euch auch meine anderen tabs an!
            
Hard to play? Try these video lessons and learn fast. | Correct




comments powered by Disqus
↑ Back to top | Tablatures and chords are parodies/interpretations of the original songs. You may use it for private study, scholarship, research or language learning purposes only