>
 >
11:57 1

11:57 1 Guitar Tabs

Elemeno P - 11:57 1 chords, tabs, tablatures, lyrics

Guitar lessons | Add/correct | Request | Top 50 tabs Artists:  A B C D E F G H I J K L M N O P Q R S T U V W X Y Z 0-9

11:57 1 Guitar Tabs – Elemeno P

CD, Sheet music, Poster

Do you like 11:57 1? Share with your friends now
Bass TabsBass Tabs v2TabsTabs v2

Gtr I (E A D G B E) - 'Untitled'
Gtr II (E A D G B E) - 'Untitled'

   Intro
    Q=130
   4/4
    Gtr I
    Q  Q  E E E E   Q  Q  E E E E  3x Q  Q  E E E E   Q  Q  E E E E
||----------------|----------------||---------------|------------------|
||o---------------|---------------o||---------------|------------------|
||----------------|----------------||---------------|------------------|
||----------7-7-7-|---------7-7-7--||---------7-7-7-|---------7-7-7----|
||o-7--7--7-5-5-5-|-4--4--4-5-5-5-o||-7--7--7-5-5-5-|-4--4--4-5-5-5----|
||--5--5--5-------|-2--2--2--------||-5--5--5-------|-2--2--2----------|


 Verse
  W          Wx7
|----------|--------|
|----------|--------|
|----------|--------|
|-7--------|--------|
|-7--------|--------|
|-5--------|--------|


    Gtrs I, II
    PM------------------------------------------------------------------|
    E E E E E E E E   E E E E E E E E   E E E E E E E E   E E E E E E E E
||------------------|-----------------|-----------------|------------------||
||o-----------------|-----------------|-----------------|-----------------o||
||------------------|-----------------|-----------------|------------------||
||--------7-7-7-7---|-------7-7-7-7---|-------7-7-7-7---|------------------||
||o-7-7-7-5-5-5-5-4-|-4-4-4-5-5-5-5-7-|-7-7-7-5-5-5-5-4-|-4-4-4-2-2-2-2-7-o||
||--5-5-5---------2-|-2-2-2---------5-|-5-5-5---------2-|-2-2-2-0-0-0-0-5--||


   Chorus
    E E E E E E E E   E E E E E E E E   E E E E E E E E   E E E E E E E E
||------------------|-----------------|-----------------|------------------||
||o-----------------|-----------------|-----------------|-----------------o||
||------------------|-----------------|-----------------|------------------||
||--------7-7-7-7---|-------7-7-7-7---|-------7-7-7-7---|------------------||
||o-7-7-7-5-5-5-5-4-|-4-4-4-5-5-5-5-7-|-7-7-7-5-5-5-5-4-|-4-4-4-2-2-2-2-7-o||
||--5-5-5---------2-|-2-2-2---------5-|-5-5-5---------2-|-2-2-2-0-0-0-0-5--||


  q  q  E E E E   q  q  E E E E   q  q  E E E E   q  e E E E E E
|---------------|---------------|---------------|-----------------|
|---------------|---------------|---------------|------2-3p2-3S5--|
|-2--2--2---2-4-|-2--2--2---2-4-|-2--2--2---2-4-|-2--2------------|
|---------2-----|---------2-----|---------2-----|-----------------|
|---------------|---------------|---------------|-----------------|
|---------------|---------------|---------------|-----------------|


 Verse
  Wx8
|--------|
|--------|
|--------|
|--------|
|--------|
|--------|


    E E E E E E E E   E E E E E E E E   E E E E E E E E   E E E E  E E  E  E
||--5---5---5---5-7-|-5---5---5---5-7-|-5---5---5---5-7-|-5---5-9-10p9-10S12--||
||o---5---5---5-----|---5---5---5-----|---5---5---5-----|---5----------------o||
||------------------|-----------------|-----------------|---------------------||
||------------------|-----------------|-----------------|---------------------||
||o-----------------|-----------------|-----------------|--------------------o||
||------------------|-----------------|-----------------|---------------------||


   Chorus
    E E E E E E E E   E E E E E E E E   E E E E E E E E   E E E E E E E E  4x
||------------------|-----------------|-----------------|------------------||
||o-----------------|-----------------|-----------------|-----------------o||
||------------------|-----------------|-----------------|------------------||
||--------7-7-7-7---|-------7-7-7-7---|-------7-7-7-7---|------------------||
||o-7-7-7-5-5-5-5-4-|-4-4-4-5-5-5-5-7-|-7-7-7-5-5-5-5-4-|-4-4-4-2-2-2-2-7-o||
||--5-5-5---------2-|-2-2-2---------5-|-5-5-5---------2-|-2-2-2-0-0-0-0-5--||


 Bridge
  W          +W           +W           +W
|----------|------------|------------|--------|
|----------|------------|------------|--------|
|----------|------------|------------|--------|
|-2--------|-(2)--------|-(2)--------|-(2)----|
|-0--------|-(0)--------|-(0)--------|-(0)----|
|----------|------------|------------|--------|


  +W           +W           +W           +H..       E
|------------|------------|------------|---------------|
|------------|------------|------------|---------------|
|------------|------------|------------|---------------|
|-(2)--------|-(2)--------|-(2)--------|-(2)--------2--|
|-(0)--------|-(0)--------|-(0)--------|-(0)--------0--|
|------------|------------|------------|---------------|


  W          +W           +W           +W
|----------|------------|------------|--------|
|----------|------------|------------|--------|
|----------|------------|------------|--------|
|-2--------|-(2)--------|-(2)--------|-(2)----|
|-0--------|-(0)--------|-(0)--------|-(0)----|
|----------|------------|------------|--------|


  +W           +W           +W           +W
|------------|------------|------------|--------|
|------------|------------|------------|--------|
|------------|------------|------------|--------|
|-(2)--------|-(2)--------|-(2)--------|-(2)----|
|-(0)--------|-(0)--------|-(0)--------|-(0)----|
|------------|------------|------------|--------|


 Solo
  Gtr I
    S   S  S  S  S  S  S  S  S  S  S  S  S  S  S  S
|---------------------------------------------------|
|---------------------------------------------------|
|------------11----------------11----------------11-|
|--11h=12h14----14p12-11h12h14----14p12-11h12h14----|
|---------------------------------------------------|
|---------------------------------------------------|
|
| Gtr II
|   W
|---------------------------------------------------|
|---------------------------------------------------|
|---------------------------------------------------|
|-<11>----------------------------------------------|
|---------------------------------------------------|
|---------------------------------------------------|


     S    S  S  S  S  S  S  S  S  S  S  S   Q
|-------------------------------------------------|
|-------------------------------------------------|
|--------------------11----------------11---------|
|---14p==12-11h12h14----14p12-11h12h14----[14]----|
|-------------------------------------------------|
|-------------------------------------------------|
|
|   +W
|-------------------------------------------------|
|-------------------------------------------------|
|-------------------------------------------------|
|-(<11>)------------------------------------------|
|-------------------------------------------------|
|-------------------------------------------------|


  Gtrs I, II
   S  S  S  S  S  S  S  S  S  S  S  S  S  S  S  S
|-------------------------------------------------|
|-------------------------------------------------|
|----------11----------------11----------------11-|
|-11h12h14----14p12-11h12h14----14p12-11h12h14----|
|-------------------------------------------------|
|-------------------------------------------------|


   S  S  S  S  S  S  S  S  S  S  S  S   Q
|---------------------------------------------|
|---------------------------------------------|
|----------------11----------------11---------|
|-14p12-11h12h14----14p12-11h12h14----[14]----|
|---------------------------------------------|
|---------------------------------------------|


   S  S  S  S  S  S  E  E  E  E  E    S  S S  S S  S  S  S S  S S  S  S  S S  S
|----------------------------------|-------9h10p9----------9h10p9----------9h10-|
|----------------------------------|-10h12--------12-10h12--------12-10h12------|
|----------11----------------------|--------------------------------------------|
|-11h12h14----14p12-11h12p11-------|--------------------------------------------|
|----------------------------12-14-|--------------------------------------------|
|----------------------------------|--------------------------------------------|


  S  S  S  S S  S S  S  E  E  E  E
|-9----------9h10p9------------------|
|---12-10h12--------12-10h12p10------|
|-------------------------------11---|
|------------------------------------|
|------------------------------------|
|------------------------------------|


   S S  S S  S S  S S  S S  S S  S S  E
|------------------------------------------|
|----9----9----9----9----9----9-10-9-------|
|-11---11---11---11---11---11--------11----|
|------------------------------------------|
|------------------------------------------|
|------------------------------------------|


   Outro
    E E E E E E E E   E E E E E E E E   E E E E E E E E   E E E E E E E E  4x
||------------------|-----------------|-----------------|------------------||
||o-----------------|-----------------|-----------------|-----------------o||
||------------------|-----------------|-----------------|------------------||
||--------7-7-7-7---|-------7-7-7-7---|-------7-7-7-7---|------------------||
||o-7-7-7-5-5-5-5-4-|-4-4-4-5-5-5-5-7-|-7-7-7-5-5-5-5-4-|-4-4-4-2-2-2-2-7-o||
||--5-5-5---------2-|-2-2-2---------5-|-5-5-5---------2-|-2-2-2-0-0-0-0-5--||


  W
|------|
|------|
|------|
|-7----|
|-7----|
|-5----|


Duration Legend
---------------
W - whole; H - half; Q - quarter; E - 8th; S - 16th; T - 32nd; X - 64th; a - acciaccatura
+ - note tied to previous; . - note dotted; .. - note double dotted
Uncapitalized letters represent notes that are staccato (1/2 duration)
Irregular groupings are notated above the duration line
Duration letters will always appear directly above the note/fret number it represents the
duration for.  Duration letters with no fret number below them represent rests.  Multi-
bar rests are notated in the form Wxn, where n is the number of bars to rest for.  Low
melody durations appear below the staff

Tablature Legend
----------------
 h   - hammer-on
 p   - pull-off
 b   - bend
 pb  - pre-bend
 r   - bend release (if no number after the r, then release immediately)
 /\  - slide into or out of (from/to "nowhere")
 s   - legato slide
 S   - shift slide
  - natural harmonic
[n]  - artificial harmonic
n(n) - tapped harmonic
 ~   - vibrato
 tr  - trill
 T   - tap
 TP  - trem. picking
 PM  - palm muting
\n/  - tremolo bar dip; n = amount to dip
 \n  - tremolo bar down
 n/  - tremolo bar up
/n\  - tremolo bar inverted dip
 =   - hold bend; also acts as connecting device for hammers/pulls
 <>  - volume swell (louder/softer)
 x   - on rhythm slash represents muted slash
 o   - on rhythm slash represents single note slash

Misc Legend
-----------
 |  - bar
||  - double bar
||o - repeat start
o|| - repeat end
*|  - double bar (ending)
 :  - bar (freetime)





Comments


Popular Elemeno P tabs & chords
11:57 1 Bass Tabs
Hold On Chords
Fast Times In Tahoe Tabs
Fast Times In Tahoe (Intro) Tabs
Fast Times In Tahoe 1 Tabs
Fast Times In Tahoe 4 Tabs
Goodbye Intro Tabs
Nirvana 1 Tabs
Ohio Intro Tabs
Weed Out Tabs


Song lyrics



↑ Back to top | Tablatures and chords are parodies/interpretations of the original songs. You may use it for private study, scholarship, research or language learning purposes only
© 2014 AZChords.com Contact us | Privacy policy | DMCA | Add/correct tabs | Request tabs | Top 50 tabs