» » »

Elemeno P, 11:57 Bass tabs (ver.1)

Artists:  A B C D E F G H I J K L M N O P Q R S T U V W X Y Z # 

11:57 Bass tabs (ver.1)

Elemeno P Tabs
 Rating:
4/5 (4 votes)
11:57 lessons Tabs too difficult? Try these video lessons and learn fast
                Gtr I (E A D G) - 'Untitled'

 Intro
  Q=130
 4/4
  Gtr I
  Wx4
|--------|
|--------|
|--------|
|--------|


  Q  Q  E E E E   Q  Q  E E E E   Q  Q  E E E E   Q  Q  E E E E
|---------------|---------------|---------------|----------------|
|---------------|---------------|---------------|----------------|
|---------5-5-5-|---------5-5-5-|---------5-5-5-|---------5-5-5--|
|-5--5--5-------|-2--2--2-------|-5--5--5-------|-2--2--2--------|


   Verse
    E E E E E E E E   E E E E E E E E   E E E E E E E E   E E E E E E E E  8x
||------------------|-----------------|-----------------|------------------||
||o-----------------|-----------------|-----------------|-----------------o||
||o-------5-5-5-5---|-------5-5-5-5---|-------5-5-5-5---|-----------------o||
||--5-5-5---------2-|-2-2-2---------5-|-5-5-5---------2-|-2-2-2-0-0-0-0-5--||


   Chorus
    E E E E E E E E   E E E E E E E E   E E E E E E E E   E E E E E E E E  3x
||------------------|-----------------|-----------------|------------------||
||o-----------------|-----------------|-----------------|-----------------o||
||o-------5-5-5-5---|-------5-5-5-5---|-------5-5-5-5---|-----------------o||
||--5-5-5---------2-|-2-2-2---------5-|-5-5-5---------2-|-2-2-2-0-0-0-0-5--||


   Verse
    E E E E E E E E   E E E E E E E E   E E E E E E E E   E E E E E E E E  8x
||------------------|-----------------|-----------------|------------------||
||o-----------------|-----------------|-----------------|-----------------o||
||o-------5-5-5-5---|-------5-5-5-5---|-------5-5-5-5---|-----------------o||
||--5-5-5---------2-|-2-2-2---------5-|-5-5-5---------2-|-2-2-2-0-0-0-0-5--||


   Chorus
    E E E E E E E E   E E E E E E E E   E E E E E E E E   E E E E E E E E  4x
||------------------|-----------------|-----------------|------------------||
||o-----------------|-----------------|-----------------|-----------------o||
||o-------5-5-5-5---|-------5-5-5-5---|-------5-5-5-5---|-----------------o||
||--5-5-5---------2-|-2-2-2---------5-|-5-5-5---------2-|-2-2-2-0-0-0-0-5--||


   Bridge
    E E E E E E E E   E E E E E E E E   E E E E E E E E   E E E E E E E E  4x
||------------------|-----------------|-----------------|------------------||
||o-----------------|-----------------|-----------------|-----------------o||
||o-------5-5-5-5---|-------5-5-5-5---|-------5-5-5-5---|-----------------o||
||--5-5-5---------2-|-2-2-2---------5-|-5-5-5---------2-|-2-2-2-0-0-0-0-5--||


   Solo
    E E E E E E E E   E E E E E E E E   E E E E E E E E   E E E E E E E E
||------------------|-----------------|-----------------|------------------||
||o-----------------|-----------------|-----------------|-----------------o||
||o-------5-5-5-5---|-------5-5-5-5---|-------5-5-5-5---|-----------------o||
||--5-5-5---------2-|-2-2-2---------5-|-5-5-5---------2-|-2-2-2-0-0-0-0-5--||


   Outro
    E E E E E E E E   E E E E E E E E   E E E E E E E E   E E E E E E E E  4x
||------------------|-----------------|-----------------|------------------||
||o-----------------|-----------------|-----------------|-----------------o||
||o-------5-5-5-5---|-------5-5-5-5---|-------5-5-5-5---|-----------------o||
||--5-5-5---------2-|-2-2-2---------5-|-5-5-5---------2-|-2-2-2-0-0-0-0-5--||


  W
|------|
|------|
|------|
|-5----|


Duration Legend
---------------
W - whole; H - half; Q - quarter; E - 8th; S - 16th; T - 32nd; X - 64th; a - acciaccatura
+ - note tied to previous; . - note dotted; .. - note double dotted
Uncapitalized letters represent notes that are staccato (1/2 duration)
Irregular groupings are notated above the duration line
Duration letters will always appear directly above the note/fret number it represents the
duration for.  Duration letters with no fret number below them represent rests.  Multi-
bar rests are notated in the form Wxn, where n is the number of bars to rest for.  Low
melody durations appear below the staff
            
Submit corrections

comments powered by Disqus
↑ Back to top | Elemeno P Bass for 11:57. Lyrics for acoustic guitar and electric guitar. Tablatures and chords are parodies/interpretations of the original songs. You may use it for private study, scholarship, research or language learning purposes only