» » »

Improper Dancing Bass tabs (ver.2)

Artists:  A B C D E F G H I J K L M N O P Q R S T U V W X Y Z # 

Improper Dancing Bass tabs (ver.2)

Electric Six
Rating:
0/5 (0 votes)

Hard to play? Try these video lessons and learn fast.
                -------------------------------------------------------------------------------
                             Improper Dancing - Electric Six
-------------------------------------------------------------------------------
Album:Fire



Tuning:Standard

Intro
G|-----------|
D|-9---------|
A|-----------|
E|-----------|
Ahh!
G|-----7--------------7--------------7--------------7-------------|
D|-------9----7-9-------9----7---------9----7-9-------9-----------|
A|---------7--------------7----7---------7--------------7-\-5-----|
E|--7--------------7--------------7--------------7----------------|

Verse One
G|-----7--------------7--------------7----------------------------|
D|-------9----7-9-------9----7---------9----7-9-------------------|
A|---------7--------------7----7---------7--------5-0-5-0---------|
E|--7--------------7--------------7-----------------------5-0-5-0-|

G|-----7--------------7------------------7------------------------|
D|-------9----7-9-------9----7h9-7---------9---7-9----------------|
A|---------7--------------7--------9p7-------7------5-0-5-0-------|
E|--7--------------7-------------------7--------------------5-0-5/|

Chorus
G|----------------------------------------------------------------|
D|-----------------------------------------------9-11p9-----------|
A|-------------9-11p9------------------------9/11-------11--------|
E|--7xx7xx-9/11------11--5xx5xxx5---7xx7xx----------------5xx5xxx5|

G|------------------------------------------------------7---------|
D|--------------------------------------------5-6-7-------9----7-9|
A|-------------9-11p9-------------------2-3-5---------------7-----|
E|--7xx7xx-9/11-------11--5xx5xxx5----3--------------7------------|

G|-----7-------------7--------------7-----------------------------|
D|-------9---7---------9----7-9-------9---9\7---7-----------------|
A|---------7---7---------7--------------7-----5-------------------|
E|--7------------7---------------7--------------------------------|

Verse Two
G|-----7---------------7------------------7-----------------------|
D|-------9----7-9--------9---7h9-7----------9---7-----------------|
A|---------7---------------7------h9po7-------7---7-5-0-5-0-------|
E|--7---------------7-------------------7-------------------5-0-5/|

Chorus Two
G|----------------------------------------------------------------|
D|-----------------------------------------------9-11p9-----------|
A|-------------9-11p9------------------------9/11-------11--------|
E|--7xx7xx-9/11------11--5xx5xxx5---7xx7xx----------------5xx5xxx5|

G|----------------------------------------------------------------|
D|----------------------------------------------------------------|
A|-------------9-11p9-------------------2-3-5-5-3-0---------------|
E|--7xx7xx-9/11-------11--5xx5xxx5----3---------------------------|

Pre Bridge
G|-----------------------|        G|------------------------------|
D|-----------7-----------|3X      D|-----------7---7-8------------|
A|-------7-9---9-7-------|        A|-------7-9---9----------------|
E|--7-10-----------10----|        E|--7-10------------------------|

Bridge
G|------7-9---5-7-------------2-4---77-9---11-9-7---5h7-4-2-------|
D|--9---------------5-7---2-4-------------------------------------|
A|----------------------------------------------------------------|
E|----------------------------------------------------------------|

G|----------------------------------------------------------------|
D|--/4--4-4-4-4-4-4-4-4-4-4-4-4-4po0------------------------------|
A|-----------------------------------4po0-------------------------|
E|----------------------------------------7-\5-0--5po4-5----------|

G|----------------------------------------------------------------|
D|----------------------------------------------------------------|
A|----------------------------------------------------------------|
E|--7-\5-0--5po4-5--7-\5-0--5po4-5--7-\5-0--4-5-6--7-\5-0--5po4-5-|

G|----------------------------------------------------------------|
D|----------------------------------------------------------------|
A|----------------------------------------------------------------|
E|--7-\5-0--5po4-5--7-\5-0--5po4-5--7-\5-0--4-5-6-----------------|

Verse Three
G|----------------------------------------------------------------|
D|-----------7------------------7-9999-------------7--------------|
A|-------7-9---9-7----------7-9--------9-------7-9---9-7----------|
E|--7-10-----------10--7-10---------------7-10-----------10-------|

G|----------------------------------------------------------------|
D|----------------------------7------------------7----------------|
A|--5-0-5-0---------------7-9---9-7----------7-9---9-7-9----------|
E|----------5-0-5-0--7-10-----------10--7-10----------------------|

G|----------------------------------------------------------------|
D|-----------7----------------------------------------------------|
A|-------7-9---9-7-----5-0-5-0------------------------------------|
E|--7-10-----------10----------5-0-5/-----------------------------|

Chorus Three
G|----------------------------------------------------------------|
D|-----------------------------------------------9-11p9-----------|
A|-------------9-11p9------------------------9/11-------11--------|
E|--7xx7xx-9/11------11--5xx5xxx5---7xx7xx----------------5xx5xxx5|

G|----------------------------------------------------------------|
D|----------------------------------------------------------------|
A|-----------------9-11p9-------------------2-3-5-5-3-0-----------|
E|5555--7xx7xx-9/11-------11--5xx5xxx5----3-----------------------|

Outro
G|----------------------------------------------------------------|
D|----------------------------------------------------------------|
A|----------------------------------------------------------------|
E|--7-\5-0--5po4-5--7-\5-0--5po4-5--7-\5-0--0-4-5--7-\5-0--0-4-5-7|

STOP!

CONTINUE!

G|----------------------------------------------------------------|
D|----------------------------------------------------------------|
A|----------------------------------------------------------------|
E|--7-\5-0--5p4-5--7-\5-0--0-4-5--7-\5-0--4-5--7-\5-0--5-5--------|

G|----------------------------------------------------------------|
D|----------------------------------------------------------------|
A|----------------------------------------------------------------|
E|--7-\5-0--0-4-5--7-\5-0--0-4-5--7-\5-0--0-4-5--7-\5-0--0-4-5----|

G|----------------------------------------------------------------|
D|----------------------------------------------------------------|
A|----------------5-----------------------------------------------|
E|--7-7-7-7-5-5-5----7--------------------------------------------|

YES!


| /  slide up
| \  slide down
| h  hammer-on
| p  pull-off
| ~  vibrato
| +  harmonic
| x  Mute note
===============================================================================
            
Hard to play? Try these video lessons and learn fast. | Correct




comments powered by Disqus
↑ Back to top | Tablatures and chords are parodies/interpretations of the original songs. You may use it for private study, scholarship, research or language learning purposes only