» » »

Improper Dancing Bass tabs (ver.1)

Artists:  A B C D E F G H I J K L M N O P Q R S T U V W X Y Z # 

Improper Dancing Bass tabs (ver.1)

Electric Six
Rating:
0/5 (0 votes)

Hard to play? Try these video lessons and learn fast.
                Electric 6  Improper dancing

                                                                   
Bass


Not 100% but a good start

Intro: 

  1                2                3                4
G||----------------|----------------|----------------|----------------|
D||----------------|----------------|----------------|----------------|
A||----------------|----------------|----------------|----------------|
E||----------------|----------------|----------------|----------------|


  5
G||----------------|
D||----------------|
A||----------------|
E||7---------------|

Verse:  

  6                                7
G||--------------------------------|--------------------------------|
D||--------12--9-----------9---11--|-------12--9-----------9--------|
A||----------------7---------------|---------------7------------7---|
E||7-------------------------------|7-------------------------------|


  8                                9 
G||--------------------------------|--------------------------------|
D||--------12--9-----------9---11--|-------12--9--------------------|
A||----------------7---------------|---------------7-------5--------|
E||7-------------------------------|7-------------------------------|
   

  10                               11
G||--------------------------------|--------------------------------|
D||--------12--9-----------9---11--|-------12--9-----------9--------|
A||----------------7---------------|---------------7------------7---|
E||7-------------------------------|7-------------------------------|
   Everybody's doing                what they shouldn't be doing

  12                               13 
G||--------------------------------|--------------------------------|
D||--------12--9-----------9---11--|--------------------------------|
A||----------------7---------------|5---0---5---0-------------------|
E||7-------------------------------|----------------5---0---5---0---|
   Everybody's doing it             in the middle of the street





  14                               15
G||--------------------------------|---------------------7----------|
D||--------12--9-----------9---11--|-------12--9-------9-----9-7-9--| ?
A||----------------7---------------|---------------7----------------|
E||7-------------------------------|7-------------------------------|
   Everybody's moving                what they shouldn't be moving

  16                               17 
G||--------------------------------|--------------------------------|
D||--------12--9-----------9---11--|--------------------------------|
A||----------------7---------------|5---0---5---0-------------------|
E||7-------------------------------|----------------5---0---5---0---|
   Everybody's moving it             in the middle of the street,  Improper


Chorus:


  18                               19
G||--------------------------------|--------------------------------|
D||---9-------9-----------7--------|----7-------7-------7-------7---|
A||-------------------9-----9-7-9--|--------------------------------|
E||7------7-------7----------------|5-------5-------5-------5-------|
   dancing                   in the middle of the street, Improper



  20                               21 
G||--------------------------------|--------------------------------|
D||---9-------9-----------7--------|----7-------7-------7-------7---|
A||-------------------9-----9-7-9--|--------------------------------|
E||7------7-------7----------------|5-------5-------5-------5-------|
   dancing                   in the middle of the street, Improper


  22                               23
G||--------------------------------|--------------------------------|
D||---9-------9-----------7--------|----7-------7-------7-------7---|
A||-------------------9-----9-7-9--|--------------------------------|
E||7------7-------7----------------|5-------5-------5-------5-------|
   dancing                   in the middle of the street, somebody better noti-


  24                                
G||--------------------------------|
D||--------------------------------|
A||-------2---3---5-------0---2----|
E||3-------------------------------|
   fy the chief of police

Verse 2:  

Chorus:




Bridge

  44                               45
G||--------------------------------|--------------------------------|
D||----------------7---------------|----------------7---------------|
A||----5---7---9-------9---7---5---|----5---7---9-------9---7---5---|
E||7-------------------------------|7-------------------------------|


  46                               47
G||--------------------------------|--------------------------------|
D||----------------7---------------|----------------7-------7---9---|
A||----5---7---9-------9---7---5---|----5---7---9-------9-----------|
E||7-------------------------------|7-------------------------------|


  48                               49
G||--------------------------------|--------------------------------|
D||9---------------------------12--|14--------------------------10--|
A||--------------------------------|--------------------------------|
E||--------------------------------|--------------------------------|


  50                               51
G||--------------------------------|--------------------------------|
D||12------------------------------|7---------------------------7---|
A||----------------------------10--|--------------------7---9-------|
E||--------------------------------|--------------------------------|


  52                                53
G||--------------------------------|--------------------------------|
D||9---------------------------12--|14------------------16--14--10--|
A||--------------------------------|--------------------------------|
E||--------------------------------|--------------------------------|


  54                               55
G||--------------------------------|--------------------------------|
D||12----------------------10--10--|7-----------------------5-------|
A||--------------------------------|--------------------------------|
E||--------------------------------|--------------------------------|


  56                               57
G||--------------------------------|--------------------------------|
D||--------------------------------|--------------------------------|
A||--------------------------------|--------------------------------|
E||2---2---2---2---2---2---2---2---|2---2---2---2---2---2---2---2---|








middle:

  58                               59
G||--------------------------------|--------------------------------|
D||--------------------------------|--------------------------------|
A||2------0---2----------------0---|2------0---2----------------0---|
E||---------------0----------------|---------------0----------------|


  60                               61
G||--------------------------------|--------------------------------|
D||--------------------------------|--------------------------------|
A||2------0---2----------------0---|2------0---2----------------0---|
E||---------------0----------------|---------------0----------------|


  62                               63
G||--------------------------------|--------------------------------|
D||--------------------------------|--------------------------------|
A||2------0---2----------------0---|2------0---2----------------0---|
E||---------------0----------------|---------------0----------------|


  64                               65
G||--------------------------------|--------------------------------|
D||--------------------------------|--------------------------------|
A||2------0---2----------------0---|2------0---2----------------0---|
E||---------------0----------------|---------------0----------------|


  66                               67
G||--------------------------------|--------------------------------|
D||----------------7---------------|----------------7---9---7-------|
A||----5---7---9-------9---7---5---|----5---7---9-------------9-----|
E||7-------------------------------|7---------------------------7---|


  68                               69
G||--------------------------------|--------------------------------|
D||----------------7---------------|--------------------------------|
A||----5---7---9-------9---7---5---|5---0---5---0-------------------|
E||7-------------------------------|----------------5---0---5---0---|


  70                               71
G||--------------------------------|--------------------------------|
D||----------------7---------------|----------------7---------------|
A||----5---7---9-------9---7---5---|----5---7---9-------9---7---5---|
E||7-------------------------------|7-------------------------------|


  72                               73
G||--------------------------------|--------------------------------|
D||----------------7---------------|--------------------------------|
A||----5---7---9-------9---7---5---|5---0---5---0-------------------|
E||7-------------------------------|----------------5---0---5---0---|


Chorus:

Outro:

  81                               82
G||--------------------------------|--------------------------------|
D||--------------------------------|--------------------------------|
A||2------0---2----------------0---|2------0---2----------------0---|
E||---------------0----------------|---------------0----------------|


  83                               84
G||--------------------------------|--------------------------------|
D||--------------------------------|--------------------------------|
A||2------0---2----------------0---|2------0---2----------------0---|
E||---------------0----------------|---------------0----------------|



  85                                
G||--------------------------------|
D||--------------------------------|
A||--------------------------------|
E||7-------------------------------|

                             Continue 


  86                               87
G||--------------------------------|--------------------------------|
D||--------------------------------|--------------------------------|
A||2------0---2----------------0---|2------0---2----------------0---|
E||---------------0----------------|---------------0----------------|


  88                               89
G||--------------------------------|--------------------------------|
D||--------------------------------|--------------------------------|
A||2------0---2----------------0---|2------0---2----------------0---|
E||---------------0----------------|---------------0----------------|


  90                               91
G||--------------------------------|--------------------------------|
D||--------------------------------|--------------------------------|
A||2------0---2----------------0---|2------0---2----------------0---|
E||---------------0----------------|---------------0----------------|


  92                               93
G||--------------------------------|--------------------------------|
D||--------------------------------|--------------------------------|
A||2------0---2----------------0---|2------0---2----------------0---|
E||---------------0----------------|---------------0----------------|


  94                               95
G||--------------------------------|--------------------------------|
D||--------------------------------|--------------------------------|
A||--------------------------------|-----------------------5--------|
E||7------7-------7--------7-------|5------5-------5----------------|


  96                                
G||--------------------------------|
D||--------------------------------|
A||--------------------------------|
E||7-------------------------------|
            
Hard to play? Try these video lessons and learn fast. | Correct




comments powered by Disqus
↑ Back to top | Tablatures and chords are parodies/interpretations of the original songs. You may use it for private study, scholarship, research or language learning purposes only